The Story So Far(Acoustic) - New Found Glory

By:Graeme Macphee

intro
e|-------------------------------------------------------------------|
B|-------------------------------------------------------------------|
G|---0--------------0-0-0--------------------------------------------|
D|--2----repeat 6x--2-2-2---repeat 4x--------------------------------|
A|-3---3------------3-3-3-3-------------x-3-3-3----------------------|
E|-----1------------------1-------------x-1-1-1----------------------|

verse
e|-------------------------------------------------------------------|
B|-------------------------------------------------------------------|
G|-------------------------------------------------------------------|
D|--2-2-2-5---5-5-5---5-5-------------repeat 3x----------------------|
A|--0-0-0-3---3-3-3---3-3--5-5-5-5-5---------------------------------|
E|-------------------------3-3-3-3-3---------------------------------|

e|-------------------------------------------------------------------|
B|-------------------------------------------------------------------|
G|------------------2-2-2-2-2-2-2-2----------------------------------|
D|--2-2-2-5---5-5---0-0-0-0-0-0-0-0----------------------------------|
A|--0-0-0-3---3-3----------------------------------------------------|
E|-------------------------------------------------------------------|

chorus
e|-------------------------------------------------------------------|
B|-------------------------------------------------------------------|
G|-------------------------------------------------------------------|
D|--5-5-5-5-x-x-----------5-5-5-5-x-x--------------------------------|
A|--3-3-3-3-x-x--3-3-x-x--3-3-3-3-x-x--3-3-x-x-----------------------|
E|---------------1-1-x-x---------------1-1-x-x-----------------------|

e|-------------------------------------------------------------------|
B|-------------------------------------------------------------------|
G|-------------------------------------------------------------------|
D|-------------------------------------------------------------------|
A|--7-7-7-7-x-x--3-3-x-x--7-7-7-7-x-x--3-3-x-x-----------------------|
E|--5-5-5-5-x-x--1-1-x-x--5-5-5-5-x-x--1-1-x-x-----------------------|

played 4x at 2:11
e|-------------------------------------------------------------------|
B|-------------------------------------------------------------------|
G|------12-12-10-10-9-9-------------9----9---------------------------|
D|----10----------------10-12-10-12---12-----------------------------|
A|--10---------------------------------------------------------------|
E|-------------------------------------------------------------------|




Ваше мнение



Капча