NEW FOUND GLORY - NEVERENDING STORY
Submitted By: CHRIS HOSLER
EMail: [email protected]
INTRO: 2X (0:00- 0:11)
E ---------------------------------------------------
B ---------------------------------------------------
G ---------------------------------------------------
D 5-5-5-5-5-5-4-5-5-5-5-5-5-5-7-7-7-5-5-5-9-9-9-7-7-7
A 3-3-3-3-3-3-2-3-3-3-3-3-3-3-5-5-5-3-3-3-7-7-7-5-5-5
E ---------------------------------------------------
VERSE #1: 2X (0:12- 0:21)
E -----------------------------------------------
B -----------------------------------------------
G -----------------------------------------------
D 5-5-5-5-5-5------------------------------------
A 3-3-3-3-3-3-5-5-5-5-5-5-3-3-3-3-3-3-7-7-7-5-5-5
E ------------3-3-3-3-3-3-1-1-1-1-1-1-5-5-5-3-3-3
PM X X X X X X X X X X X X X X X X
INTERLUDE 1: (0:22- 0:31)
E -----------------------------------------------
B -----------------------------------------------
G -----------------------------------------------
D 8-8-8-8-8-8-8-8-8-8-8-8------------------------
A 6-6-6-6-6-6-6-6-6-6-6-6-6-6-6-6-6-6-8-8-8-8-8-8
E ------------------------4-4-4-4-4-4-6-6-6-6-6-6
E -----------------------------------------------
B -----------------------------------------------
G -----------------------------------------------
D 8-8-8-8-8-8-5-5-5-5-5-5------------------------
A 6-6-6-6-6-6-3-3-3-3-3-3-6-6-6-6-6-6-8-8-8-8-8-8
E ------------------------4-4-4-4-4-4-6-6-6-6-6-6
CHORUS: 2X (0:32- 0:43)
(GUITAR ONE)
E ---------------------------------------
B ---------------------------------------
G ---------------------------------------
D 5-5-5-5-5-5-----------3-2-3-2-0-2-0---0
A 3-3-3-3-3-3-5-5-5-5-5---------------3--
E ------------3-3-3-3-3------------------
(GUITAR TWO)
E ---------------------------------------
B ---------------------------------------
G ---------------------------------------
D 5-5-5-5-5-5----------------------------
A 3-3-3-3-3-3-5-5-5-5-5-3-3-3-7-7-7-5-5-5
E ------------3-3-3-3-3-1-1-1-5-5-5-3-3-3
PM X X X X X X
VERSE #2: 2X (0:48- 0:57)
E -----------------------------------------
B -----------------------------------------
G -----------------------------------------
D 5-5-5-5-5-5------------------------------
A 3-3-3-3-3-3-5-5-5-5-5-3-3-3-3-7-7-7-5-5-5
E ------------3-3-3-3-3-3-1-1-1-5-5-5-3-3-3
PM X X X X X X X X X X X X X X
INTERLUDE 2: (0:58- 1:07)
E -----------------------------------------------
B -----------------------------------------------
G -----------------------------------------------
D 8-8-8-8-8-8-8-8-8-8-8-8------------------------
A 6-6-6-6-6-6-6-6-6-6-6-6-6-6-6-6-6-6-8-8-8-8-8-8
E ------------------------4-4-4-4-4-4-6-6-6-6-6-6
E -----------------------------------------------
B -----------------------------------------------
G -----------------------------------------------
D 8-8-8-8-8-8-5-5-5-5-5-5------------------------
A 6-6-6-6-6-6-3-3-3-3-3-3-6-6-6-6-6-6-8-8-8-8-8-8
E ------------------------4-4-4-4-4-4-6-6-6-6-6-6
CHORUS: PLAY THIS PART 4X (1:08- 1:28)
(GUITAR ONE)
E ---------------------------------------
B ---------------------------------------
G ---------------------------------------
D 5-5-5-5-5-5-----------3-2-3-2-0-2-0---0
A 3-3-3-3-3-3-5-5-5-5-5---------------3--
E ------------3-3-3-3-3------------------
(GUITAR TWO)
E ---------------------------------------
B ---------------------------------------
G ---------------------------------------
D 5-5-5-5-5-5----------------------------
A 3-3-3-3-3-3-5-5-5-5-5-3-3-3-7-7-7-5-5-5
E ------------3-3-3-3-3-1-1-1-5-5-5-3-3-3
PM X X X X X X
VERSE #3: 2X (1:31- 1:41)
E -----------------------------------------
B -----------------------------------------
G -----------------------------------------
D 5-5-5-5-5-5------------------------------
A 3-3-3-3-3-3-5-5-5-5-5-3-3-3-3-7-7-7-5-5-5
E ------------3-3-3-3-3-3-1-1-1-5-5-5-3-3-3
PM X X X X X X X X X X X X X X
INTERLUDE 3: (1:42: 1:50)
E -----------------------------------------------
B -----------------------------------------------
G -----------------------------------------------
D 8-8-8-8-8-8-8-8-8-8-8-8------------------------
A 6-6-6-6-6-6-6-6-6-6-6-6-6-6-6-6-6-6-8-8-8-8-8-8
E ------------------------4-4-4-4-4-4-6-6-6-6-6-6
E -------------------------------------
B -------------------------------------
G -------------------------------------
D 8-8-8-8-8-8-5-5-5-5-5-5--------------
A 6-6-6-6-6-6-3-3-3-3-3-3-6-6-6-6-6-6-8
E ------------------------4-4-4-4-4-4-6 PAUSE...THEN
CHORUS: 4 MORE TIMES (1:51-2:12)
(BOTH GUITARS...)
E ---------------------------------------
B ---------------------------------------
G ---------------------------------------
D 5-5-5-5-5-5----------------------------
A 3-3-3-3-3-3-5-5-5-5-5-3-3-3-7-7-7-5-5-5
E ------------3-3-3-3-3-1-1-1-5-5-5-3-3-3
PM X X X X X X
OUTRO PART: (2:13- 2:17)
E -----------
B -----------
G -----------
D 5-5-------5
A 3-3-5-5-3-3
E ----3-3-1--
TABBED BY: CHRIS HOSLER
QUESTIONS OR COMMENTS? EMAIL ME: [email protected]
HOPE YA LIKE IT!!! NFG KICKS ASS!!!
===========
New Found Glory
The Neverending Story
Album: From the Screen to Your Stereo
Tabbed By: Chris Frank ([email protected])
Hey this is my very first tab. Please tell me what you think. New Found Glory
is a kick ass emo/punk band out of Coral Springs,Florida who are just starting to come
out to the radio scene
Intro
--------------------------------
--------------------------------
55555555-4/555555-5/77-55-99-777
55555555-4/555555-5/77-55-99-777
33333333-2/333333-3/55-33-77-555
--------------------------------
Verse (Palm Muted)
----------------------------------
----------------------------------
55555555--------------------------
55555555--55555555-3333333377-55--
333333330-5555555503333333377-55--
--------0-3333333301111111155-33--
Pre-Courus
------------------------------
------------------------------
88888888----------------------
88888888666688888-------------
66666666666688888-------------
--------444466666-------------
------------------------------
------------------------------
88888555555-------------------
888883333336666688888888------
666663333336666688888888------
-----------4444466666666------
Courus
Gtr1
----------------------------------
----------------------------------
55555555--------------------------
55555555--55555555-33-x-77-x-55--
333333330-55555555033-x-77-x-55--
--------0-33333333011-x-55-x-33--
Gtr 2
----------------------------------
----------------------------------
55555555--------------------------
55555555--55555555-3-2-3-2-2------
333333330-55555555--------5--5-3-5
--------0-33333333----------------
Little alternate thingy for GTR2 Second part
---------------------------------
---------------------------------
-3-1-0-1-0-0---------------------
1---------3-3-1-3----------------
---------------------------------
---------------------------------

break
-------------------------
-------------------------
-------------------------
1212-121212-121212-121212
1010-101010-101010-101010
-------------------------
End
---------------------------------
---------------------------------
-------------------------------55
33-x-77-x-55--x-33-x-77-x-55---55
33-x-77-x-55--x-33-x-77-x-55---33
11-x-55-x-33--x-11-x-55-x-33-----
Structure
Intro X2
Verse X2
Pre Courus
Courus X 2
VerseX3
Pre Courus
Courus X2
Course alt X2
Break
Verse X2
Pre Courus
Courus X4
End


Ваше мнение



Капча