Intro (X2)
Guitar 2 plays this
-----------------------------------
-----------------------------------
55555555-4/555555-5/77-55-99-777---
55555555-4/555555-5/77-55-99-777---
33333333-2/333333-3/55-33-77-555---
-----------------------------------
1st Verse (X2) (I Think the whole thing is muted)
Guitar 1
---------------------------------
---------------------------------
XX5-XX5--------------------------
XX5-XX5-XX5-XX5-XX3-XX3-XX7-XX5--
XX3-XX3-XX5-XX5-XX3-XX3-XX7-XX5--
--------XX3-XX3-XX1-XX1-XX5-XX3--
Pre-Chorus
Both Guitars
-----------------------------------------------
-----------------------------------------------
88888888------------88888-555555---------------
88888888-6666-88888-88888-555555-66666-88888888
66666666-6666-88888-66666-333333-66666-88888888
---------4444-66666--------------44444-66666666

Chorus (X2)
Guitar 1
----------------------------------
----------------------------------
55555555--------------------------
55555555--55555555--33-x-77-x-55--
33333333--55555555--33-x-77-x-55--
----------33333333--11-x-55-x-33--
Guitar 2
--------------------------------------
--------------------------------------
55555555------------------------------
55555555---55555555-3-2-3-2-0-2-0---0-
33333333-0-55555555---------------3---
---------0-33333333-------------------

2nd Verse (X3)
Guitar 1
~Towards the end of the first verse guitar two pick slides~
------------------------------------
------------------------------------
55-555-5----------------------------
55-555-5-55-555-5-33-333-3-77-7-55-5
33-333-3-55-555-5-33-333-3-77-7-55-5
---------33-333-3-11-111-1-55-5-33-3
Pre-Chorus (X1)
Chorus (X4)
Break Down
-------------------------
-------------------------
-------------------------
1212-121212-121212-121212
1010-101010-101010-101010 {GO!}
-------------------------
Now Play The 2nd Verse Twice but w/ out the pick slide.
Pre-Chorus (When you get to the last note of the pre-chorus stop playing for about 3 seconds)
Then you play the Chorus (X4)
End
-----------------------------------
-----------------------------------
------------------------5----------
5-33-77-5---5-33-7-5—-5-5----------
5-33-77-5---5-33-7-5—-5-3----------
3-11-55-3---3-11-5-3—-3------------
& That’s it!!!!!!
Hope you like it, it’s my first complete tab.




Ваше мнение



Капча