-------------------------------------------------------------------------------------
NEW FOUND GLORY - THE GREAT HOUDINI
STICKS AND STONES
-------------------------------------------------------------------------------------
Palm muted
E-|-------------------------------------------
B-|-------------------------------------------
G-|--------------------------------1-1-1-1----
D-|--9-9-9-9-9-9-9-9----6-6-6-6----2-2-2-2----
A-|--9-9-9-9-9-9-9-9----6-6-6-6----2-2-2-2----
E-|--7-7-7-7-7-7-7-7----4-4-4-4----0-0-0-0---- x 3
E-|------------------------------------------
B-|------------------------------------------
G-|--------------------------------1----1----
D-|--9-9-9-9-9-9-9-9----6-6-6-6----2----2----
A-|--9-9-9-9-9-9-9-9----6-6-6-6----2----2----
E-|--7-7-7-7-7-7-7-7----4-4-4-4----0----0----
VERSE 1
E-|----------------------------------------------------------
B-|----------------------------------------------------------
G-|--------------------------------------------1-x-x--1-1----
D-|--9-x-x--9-9----8-x-x--8-8----6-x-x--6-6----2-x-x--2-2----
A-|--9-x-x--9-9----8-x-x--8-8----6-x-x--6-6----2-x-x--2-2----
E-|--7-x-x--7-7----6-x-x--6-6----4-x-x--4-4----0-x-x--0-0----
E-|------------------------------------------------------
B-|------------------------------------------------------
G-|--------------------------------------------1----1----
D-|--9-x-x--9-9----8-x-x--8-8----6-x-x--6-6----2----2----
A-|--9-x-x--9-9----8-x-x--8-8----6-x-x--6-6----2----2----
E-|--7-x-x--7-7----6-x-x--6-6----4-x-x--4-4----0----0----
E-|----------------------------------------------------------
B-|----------------------------------------------------------
G-|--------------------------------------------1-x-x--1-1----
D-|--9-x-x--9-9----8-x-x--8-8----6-x-x--6-6----2-x-x--2-2----
A-|--9-x-x--9-9----8-x-x--8-8----6-x-x--6-6----2-x-x--2-2----
E-|--7-x-x--7-7----6-x-x--6-6----4-x-x--4-4----0-x-x--0-0----
E-|------------------------------------------------------
B-|------------------------------------------------------
G-|--------------------------------------------1----1----
D-|--9-x-x--9-9----8-x-x--8-8----6-x-x--6-6----2----2----
A-|--9-x-x--9-9----8-x-x--8-8----6-x-x--6-6----2----2----
E-|--7-x-x--7-7----6-x-x--6-6----4-x-x--4-4----0----0----
PRE-CHORUS
E-|------------------------------------------------------------------
B-|------------------------------------------------------------------
G-|----------------------------------1---1--1-1-1--------------------
D-|--4---4--4-4-4----4---4--4-4-4----2---2--2-2-2----4-x-x-x-x--4----
A-|--4---4--4-4-4----4---4--4-4-4----2---2--2-2-2----4-x-x-x-x--4----
E-|--2---2--2-2-2----2---2--2-2-2----0---0--0-0-0----2-x-x-x-x--2----
CHORUS
E-|--------------------------------------
B-|--------------------------------------
G-|-----------------------------1---1----
D-|--9---9----8---8----6---6----2---2----
A-|--9---9----8---8----6---6----2---2----
E-|--7---7----6---6----4---4----0---0---- x 3
E-|-------------------------------------------
B-|-------------------------------------------
G-|----------------------1-x-x-x-x--1----4----
D-|--4----4----4----4----2-x-x-x-x--2----4----
A-|--4----4----4----4----2-x-x-x-x--2----2----
E-|--2----2----2----2----0-x-x-x-x--0---------
Palm muted
E-|-------------------------------------------
B-|-------------------------------------------
G-|--------------------------------1-1-1-1----
D-|--9-9-9-9-9-9-9-9----6-6-6-6----2-2-2-2----
A-|--9-9-9-9-9-9-9-9----6-6-6-6----2-2-2-2----
E-|--7-7-7-7-7-7-7-7----4-4-4-4----0-0-0-0---- x 3
E-|------------------------------------------
B-|------------------------------------------
G-|--------------------------------1----1----
D-|--9-9-9-9-9-9-9-9----6-6-6-6----2----2----
A-|--9-9-9-9-9-9-9-9----6-6-6-6----2----2----
E-|--7-7-7-7-7-7-7-7----4-4-4-4----0----0----
VERSE 2
E-|----------------------------------------------------------
B-|----------------------------------------------------------
G-|--------------------------------------------1-x-x--1-1----
D-|--9-x-x--9-9----8-x-x--8-8----6-x-x--6-6----2-x-x--2-2----
A-|--9-x-x--9-9----8-x-x--8-8----6-x-x--6-6----2-x-x--2-2----
E-|--7-x-x--7-7----6-x-x--6-6----4-x-x--4-4----0-x-x--0-0----
E-|------------------------------------------------------
B-|------------------------------------------------------
G-|--------------------------------------------1----1----
D-|--9-x-x--9-9----8-x-x--8-8----6-x-x--6-6----2----2----
A-|--9-x-x--9-9----8-x-x--8-8----6-x-x--6-6----2----2----
E-|--7-x-x--7-7----6-x-x--6-6----4-x-x--4-4----0----0----
E-|----------------------------------------------------------
B-|----------------------------------------------------------
G-|--------------------------------------------1-x-x--1-1----
D-|--9-x-x--9-9----8-x-x--8-8----6-x-x--6-6----2-x-x--2-2----
A-|--9-x-x--9-9----8-x-x--8-8----6-x-x--6-6----2-x-x--2-2----
E-|--7-x-x--7-7----6-x-x--6-6----4-x-x--4-4----0-x-x--0-0----
E-|------------------------------------------------------
B-|------------------------------------------------------
G-|--------------------------------------------1----1----
D-|--9-x-x--9-9----8-x-x--8-8----6-x-x--6-6----2----2----
A-|--9-x-x--9-9----8-x-x--8-8----6-x-x--6-6----2----2----
E-|--7-x-x--7-7----6-x-x--6-6----4-x-x--4-4----0----0----
PRE-CHORUS
E-|------------------------------------------------------------------
B-|------------------------------------------------------------------
G-|----------------------------------1---1--1-1-1--------------------
D-|--4---4--4-4-4----4---4--4-4-4----2---2--2-2-2----4-x-x-x-x--4----
A-|--4---4--4-4-4----4---4--4-4-4----2---2--2-2-2----4-x-x-x-x--4----
E-|--2---2--2-2-2----2---2--2-2-2----0---0--0-0-0----2-x-x-x-x--2----
CHORUS
E-|--------------------------------------
B-|--------------------------------------
G-|-----------------------------1---1----
D-|--9---9----8---8----6---6----2---2----
A-|--9---9----8---8----6---6----2---2----
E-|--7---7----6---6----4---4----0---0---- x 3
E-|-------------------------------------------
B-|-------------------------------------------
G-|----------------------1-x-x-x-x--1----4----
D-|--4----4----4----4----2-x-x-x-x--2----4----
A-|--4----4----4----4----2-x-x-x-x--2----2----
E-|--2----2----2----2----0-x-x-x-x--0---------
E-|--------------------------------------
B-|--------------------------------------
G-|-----------------------------1---1----
D-|--9---9----8---8----6---6----2---2----
A-|--9---9----8---8----6---6----2---2----
E-|--7---7----6---6----4---4----0---0---- x 3
E-|-------------------------------------------
B-|-------------------------------------------
G-|----------------------1-x-x-x-x--1----4----
D-|--4----4----4----4----2-x-x-x-x--2----4----
A-|--4----4----4----4----2-x-x-x-x--2----2----
E-|--2----2----2----2----0-x-x-x-x--0---------
E-|---------------------------------
B-|---------------------------------
G-|----------------1----x-x----1----
D-|--9----8----6---2----x-x----2----
A-|--9----8----6---2----x-x----2----
E-|--7----6----4---0----x-x----0---- x 8
PRE-CHORUS
E-|-----------------------------------------------------------------------
B-|-----------------------------------------------------------------------
G-|----------------------------------1---1--1-1-1----1---1--1-1-1----R----
D-|--4---4--4-4-4----4---4--4-4-4----2---2--2-2-2----2---2--2-2-2----E----
A-|--4---4--4-4-4----4---4--4-4-4----2---2--2-2-2----2---2--2-2-2----S----
E-|--2---2--2-2-2----2---2--2-2-2----0---0--0-0-0----0---0--0-0-0----T----
E-|------------------------------------------------------------------
B-|------------------------------------------------------------------
G-|----------------------------------1---1--1-1-1--------------------
D-|--4---4--4-4-4----4---4--4-4-4----2---2--2-2-2----4-x-x-x-x--4----
A-|--4---4--4-4-4----4---4--4-4-4----2---2--2-2-2----4-x-x-x-x--4----
E-|--2---2--2-2-2----2---2--2-2-2----0---0--0-0-0----2-x-x-x-x--2----let ring
Clean
E-|--------------------------------------
B-|--------------------------------------
G-|-----------------------------1---1----
D-|--9---9----8---8----6---6----2---2----
A-|--9---9----8---8----6---6----2---2----
E-|--7---7----6---6----4---4----0---0---- x 3
E-|---------------------
B-|---------------------
G-|----------------1----
D-|--4----4-4-4----2----
A-|--4----4-4-4----2----
E-|--2----2-2-2----0----
RIFF
DISTORTION
E-|----------------------------
B-|----------------------------
G-|----------------------------
D-|--------------------1--2----
A-|--------------2--4----------
E-|--0--2--4--5----------------
CHORUS
E-|--------------------------------------
B-|--------------------------------------
G-|-----------------------------1---1----
D-|--9---9----8---8----6---6----2---2----
A-|--9---9----8---8----6---6----2---2----
E-|--7---7----6---6----4---4----0---0---- x 3
E-|---------------------------------------
B-|---------------------------------------
G-|----------------------1--x--x--x--1----
D-|--4----4----4----4----2--x--x--x--2----
A-|--4----4----4----4----2--x--x--x--2----
E-|--2----2----2----2----0--x--x--x--0----
E-|--------------------------------------
B-|--------------------------------------
G-|-----------------------------1---1----
D-|--9---9----8---8----6---6----2---2----
A-|--9---9----8---8----6---6----2---2----
E-|--7---7----6---6----4---4----0---0---- x 3
E-|------------------------------------------------------------------------------
B-|------------------------------------------------------------------------------
G-|------------------------------------------1----1----1----1--------------------
D-|--4----4----4----4----4----4----4----4----2----2----2----2----4-x-x-x-x--4----
A-|--4----4----4----4----4----4----4----4----2----2----2----2----4-x-x-x-x--4----
E-|--2----2----2----2----2----2----2----2----0----0----0----0----2-x-x-x-x--2----




Ваше мнение



Капча