Artist:A New Found Glory
Song: That Thing You Do
Cd:From your screen to the stereo
Tabbed By: Zach

Buy the album and learn the songs it will impress all your friends!

(verse)
e|--------------------------------------------------------------------|
B|--------------------------------------------------------------------|
G|--9-9-9-9-9-------------------9-9-9-9-9-----------------------------|
D|--9-9-9-9-9--7-7-7---9-9-9----9-9-9-9-9---7-7-7---9-9-9-------------|
A|--7-7-7-7-7--7-7-7---9-9-9----7-7-7-7-7---7-7-7---9-9-9-------------|
E|-------------5-5-5---7-7-7----------------5-5-5---7-7-7-------------|
you doing that thing you do......

(pre-chorus)
e|--------------------------------------------------------------------|
B|--------------------------------------------------------------------|
G|--6-6-6-6-----------------------------------------------------------|
D|--6-6-6-6---4-4-4-4---7-7-7-7---9-9-9-9-----------------------------|
A|--4-4-4-4---4-4-4-4---7-7-7-7---9-9-9-9-----------------------------|
E|------------2-2-2-2---5-5-5-5---7-7-7-7-----------------------------|
into a million pieces.........

(chorus)
e|--------------------------------------------------------------------|
B|--------------------------------------------------------------------|
G|--6-6-6------------9-9-9----------9-9-9-9---------------------------|
D|--6-6-6---4-4-4----9-9-9---7-7-7--9-9-9-9--7-7-7--9-9-9-------------|
A|--4-4-4---4-4-4----7-7-7---7-7-7--7-7-7-7--7-7-7--9-9-9-------------|
E|----------2-2-2------------5-5-5-----------5-5-5--7-7-7-------------|
well I tried and tried to forget....

(bridge)
e|--------------------------------------------------------------------|
B|--------------------------------------------------------------------|
G|-----------6-6-6-----------9-9-9------------------------------------|
D|---7-7-7---6-6-6---4-4-4---9-9-9---7-7-7---9-9-9--------------------|
A|---7-7-7---4-4-4---4-4-4---7-7-7---7-7-7---9-9-9--------------------|
E|---5-5-5-----------2-2-2-----------5-5-5---7-7-7--------------------|
I dont ask a lot of girls......




Ваше мнение



Капча