Intro (x2) : Rhythm Guitar
e |-------------------------------|
B |-------------------------------|
G |-6-6-xx-6-6-xx-----------------|
D |-6-6-xx-6-6-xx--4-4-xx-4-4-xx--|
A |-4-4-xx-4-4-xx--4-4-xx-4-4-xx--|
E |----------------2-2-xx-2-2-xx--|

Intro : Lead Guitar
e |-------------------------------------------------|
B |-------------------------------------------------|
G |-6-6-6---13/--11/--10/--8/--6--------------------|
D |-6-6-6-------------------------------------------|
A |-4-4-4---11/--9/---8/---6/--4--------------------|
E |-------------------------------------------------|

e |-------------------------------------------------|
B |-------------------------------------------------|
G |-6-6-6---13/--11/--10/--8/--6/--8/--6------------|
D |-6-6-6-------------------------------------------| (2nd)
A |-4-4-4---11/--9/---8/---6/--4/--6/--4------------|
E |-------------------------------------------------|

Verse (x4) :
e |-------------------------------|
B |-------------------------------|
G |-6-6-xx-6-6-xx-----------------|
D |-6-6-xx-6-6-xx--4-4-xx-4-4-xx--|
A |-4-4-xx-4-4-xx--4-4-xx-4-4-xx--|
E |----------------2-2-xx-2-2-xx--|

Prechorus (x3) :
e |------------------------------------------|
B |------------------------------------------|
G |-3-3-3-3----------------------------------|
D |-3-3-3-3--4-4-4-4----------6-6-6-6--------|
A |-1-1-1-1--4-4-4-4----------6-6-6-6--------|
E |----------2-2-2-2----------4-4-4-4--------|
(last time)
Chorus :
e |-------------------------------------------------------------------|
B |-------------------------------------------------------------------|
G |-6-6-6--6-6-6--6-6-6---3-3------------------------------666--------|
D |-6-6-66-6-6-66-6-6-66--3-3--66---(x4)--4+------------4--666-666(x2)|
A |-4-4-46-4-4-46-4-4-46--1-1--66---------4+(last time)-4--444-666----|
E |------4------4------4-------44---------2+------------2------444----|
+=let ring

Intro 2 : Rhythm Guitar (same as rhythm intro)

Intro 2 : Lead Guitar
e |-------------------------------------------------|
B |-------------------------------------------------|
G |-6-6-6---13/--11/--10/--8/--6--------------------|
D |-6-6-6-------------------------------------------| (1st
A |-4-4-4---11/--9/---8/---6/--4--------------------|
E |-------------------------------------------------|

e |-------------------------------------------------|
B |-------------------------------------------------|
G |-6-6-6---13/--11/--10/--8------------------------|
D |-6-6-6-------------------------------------------| (2nd
A |-4-4-4---11/--9/---8/---6------------------------|
E |-------------------------------------------------|

Verse 2 : (same as verse)

Prechorus 2 : (same as prechorus)

Chorus 2 : (same as chorus)

Bridge (x4):
e |-------------------|
B |-------------------|
G |-6-6-6-6-----------|
D |-6-6-6-6--4-4-4-4--|
A |-4-4-4-4--4-4-4-4--|
E |----------2-2-2-2--|

Breakdown (x3): guitar 1 only
e |------------------------------------------|
B |------------------------------------------|
G |-3-3-3-3----------------------------------|
D |-3-3-3-3--4-4-4-4----------6-6-6-6--------|
A |-1-1-1-1--4-4-4-4----------6-6-6-6--------|
E |----------2-2-2-2----------4-4-4-4--------|
(no distortion) (last time only, w/ distortion)

Chorus 3 : (same as chorus)

Outro (x4) :
e |----------------------------------------------|
B |----------------------------------------------|
G |-6-6-6--6-6-6---6-6-6-3-3----------6-6--------|
D |-6-6-66-6-6-66-6-6-66-3-3-66-------6-6--------|
A |-4-4-46-4-4-46-4-4-46-1-1-66-------4-4--------|
E |------4------4------4-----44------------------|
(last time)

-----------------------------------------------------------




Ваше мнение



Капча