---------------------------------------------------------------------------
artist: new found glory
song: sonny
album: sticks and stones
a good ballad song!!
intro
gtr 1
riff a
e-------------------------------------------------->
b-------------------------------------------------->
g-------------------------------------------------->
d-11--11-x-x-x-9---9-x-x-x11--11-x-x-x-9-9-9-9-x-x->
a--0---0-x-x-x-0---0-x-x-x-0---0-x-x-x-0-0-0-0-x-x->
D-------------------------------------------------->
e--------------------------------------------------|
b--------------------------------------------------|
g--------------------------------------------------|
d--7---7-x-x-x-6---6-x-x-x-7---7-x-x-x-6-6-6-4-4-4-|
a--x---x-x-x-x-x---x-x-x-x-x---x-x-x-x-x-x-x-x-x-x-|
D--4---4-x-x-x-4---4-x-x-x-4---4-x-x-x-4-4-4-4-4-4-|
gtr 2 (w/ riff a gtr 1)
riff b
e-------------------------------------------------->
b-------------------------------------------------->
g--------------9---9-------------------9---9------->
d--7---7---6h7---------7---7---7---6h7---------7--->
a-------------------------------------------------->
D-------------------------------------------------->
e--------------------------------------------------|
b--------------------------------------------------|
g--------------------------------------------------|
d-11--11--1112-9---9---7h911--11--1112-9-7-7h9-9-7-|
a--------------------------------------------------|
D--------------------------------------------------|
verse
gtr 1 play riff a 4x
gtr 2 tacet
chorus
gtr 1 *=5x #=3x
e--------------------------------------------------|
b---*---*---*---*----------------------------------|
g--7---7---9---9-------------------------#-#-------|2x
d--7---7---9---9---4--4xxx4--4xxx4--4xxx4-3--------|
a--5---5---7---7---4--4xxx4--4xxx4--4xxx4-3--------|
D------------------4--4xxx4--4xxx4--4xxx4-3--------|
gtr 2 *=5x #=3x
e--------------------------------------------------|
b---*---*---*---*------------------------#-#-------|
g--7---7---9---9--14-14--13-13--11-11--11-9--------|2x
d--7---7---9---9---x--x---x--x---x--x---x-x--------|
a--5---5---7---7--12-12--11-11---9--9---9-7--------|
D--------------------------------------------------|
gtr 1 & 2 *=5x
fill 1
e-------------------|
b---*---*---*-------|
g--7---7---9---9----|
d--7---7---9---9----|
a--5---5---7---7----|
D-------------------|
then -gtr 1 play riff a
gtr 2 play riff b
-verse
-chorus
bridge ("for now we'll say...")
gtr 1 & 2 *=5x
e--------------------------------------------------|
b---*---*---*---*-------------------*---*---*------|
g--7---7---9---9----*---*---*---*--7---7---9---9---|
d--7---7---9---9---4---4---3---3---7---7---9---9---|
a--5---5---7---7---4---4---3---3---5---5---7---7---|
D------------------4---4---3---3-------------------|
then -gtr 1 play riff a
gtr 2 play riff b (watch the timing)
gtr 2 (gtr 1 play riff a)
riff c
e----------------------------------------------->
b----------------------------------------------->
g--------------9---9---9h11--9--7--6--7--6--9--->
d--7---7---6h7---------------------------------->
a----------------------------------------------->
D----------------------------------------------->
e-----------------------------12---12-----------|
b-10---10--12----12--10--9-10----10---10--------|
g----9---------9------9--9--9-------------------|
d-----------------------------------------------|
a-----------------------------------------------|
D-----------------------------------------------|
then -chorus
bridge
gtr 1 & 2 *=5x
e-/------------3x---------------\------------------|
b---*---*---*---*-------------------*---*---*------|
g--7---7---9---9----*---*---*---*--7---7---9---9---|
d--7---7---9---9---4---4---3---3---7---7---9---9---|
a--5---5---7---7---4---4---3---3---5---5---7---7---|
D------------------4---4---3---3-------------------|
then gtr 1 play riff a
hope you enjoy it!! please send email for correction!
tabbed by rian sigit ([email protected])
[email protected]---------




Ваше мнение



Капча