New Found Glory - Sincerely Me

Intro And Verse: (Played On Bass and Repeated Throughout The Song)
E--------------------------------------------------
B--------------------------------------------------
G--------------------------------4----------------
D------4h5------4h5--------4-4-5---5---------------
A-----------0-0------3-3-3-------------------------
E-3-3----------------------------------------------

After 4 Times Of That Riff Hold This Out
E----------
B----------
G----------
D-5--------
A-5--------
E-3--------

PreChorus: Play Once (Palm Muted)
E------------------------
B------------------------
G-5-5-5-5-5-5-5-5--------
D-5-5-5-5-5-5-5-5--------
A-3-3-3-3-3-3-3-3--------
E------------------------

Chorus: Repeated 4 Times
E----------------------------------------
B----------------------------------------
G------------------5-5-5-5-5-5-5-5-------
D-5-5----7-7------5-5-5-5-5-5-5-5--------
A-5-5----7-7------3-3-3-3-3-3-3-3--------
E-3-3----5-5-----------------------------

Post Chorus: Repeated 4 Times Then Right Before The Verse
E--------------------------------- E----------------
B--------------------------------- B----------------
G--------------------------------- G----------------
D-----5-------4-------5-----5----- D-5-5------------
A-X-X-5-X-X-X-4-X-X-X-5-X-X-5----- A-5-5------------
E-X-X-3-X-X-X-2-X-X-X-3-X-X-3----- E-3-3------------

After 4 Times Of The “Intro and Verse Riff” Hold This Out
E---------
B---------
G---------
D-5-------
A-5-------
E-3-------

PreChorus: Play Once (Palm Muted)
E---------------------
B---------------------
G-5-5-5-5-5-5-5-5-----
D-5-5-5-5-5-5-5-5-----
A-3-3-3-3-3-3-3-3-----
E---------------------

Chorus: Repeated 8 Times
E--------------------------------------
B--------------------------------------
G-----------------5-5-5-5-5-5-5-5------
D-5-5----7-7------5-5-5-5-5-5-5-5------
A-5-5----7-7------3-3-3-3-3-3-3-3------
E-3-3----5-5---------------------------

Post Chorus: Repeat 4 Times
E--------------------------------
B--------------------------------
G--------------------------------
D-----5-------4-------5-----5----
A-X-X-5-X-X-X-4-X-X-X-5-X-X-5----
E-X-X-3-X-X-X-2-X-X-X-3-X-X-3----

Interlude Part One: Play Once This Riff Four Times
E---------------------------------------------------------- E---------------
B---------------------------------------------------------- B---------------
G----------------------------------5/////////////////------ G---------------
D-5/////////////-7///////////////--5/////////////////------ D-7-7-5-7-------
A-5////////////--7///////////////--3/////////////////------ A-7-7-5-7-------
E-3////////////--5///////////////-------------------------- E-5-5-3-5-------

Interlude Part Two: Repeat 4 Times
E-------------------------------------------------
B-------------------------------------------------
G--------------------------------4---------------
D------4h5------4h5--------4-4-5---5--------------
A-----------0-0------3-3-3------------------------
E-3-3---------------------------------------------

Last Chorus Part 1: Repeated 4 Times
E-------------------------------------
B-------------------------------------
G-----------------5-5-5-5-5-5-5-5-----
D-5-5----7-7------5-5-5-5-5-5-5-5-----
A-5-5----7-7------3-3-3-3-3-3-3-3-----
E-3-3----5-5--------------------------

Last Chorus Part 2: Repeated 4 Times
E--------------------------
B--------------------------
G-------------5--5--5--5---
D-5--5--7--7--5--5--5--5---
A-5--5--7--7--3--3--3--3---
E-3--3--5--5---------------

Ending: Play Once
E-------------------------------------
B-------------------------------------
G-------------------------------------
D-7---5///////////////////////--------
A-7---5///////////////////////--------
E-5---3////////////////////////-------




Ваше мнение



Капча