New Found Glory- SIncerely me (correct version the other 1 isnt even sincerely me).
Tabbed by Justal- [email protected]

NFG- sincerely me- correct version
Bass intro: ( for u bass players_
|----------------------------------------------------|
|-----4-5------4-5-------4-5----5-4------------------|
|----------0-0-----3-3-3------0----------------------|
|-3-3------------------------------------------------|
riff 1-
|----------------------------------------------------|
|----------------------------------------------------|
|--------------------------5-5-5-5-5-5-5-5-----------|
|--5-----------------------5-5-5-5-5-5-5-5-----------|
|--5-----------------------3-3-3-3-3-3-3-3-----------|
|--3-------------------------------------------------|
chorus:
|----------------------------------------------------|
|----------------------------------------------------|
|-------------5-5-5-5-5-5-5-5------------------------|
|---5-5--7-7--5-5-5-5-5-5-5-5------------------------|
|---5-5--7-7--3-3-3-3-3-3-3-3------------------------|
|---3-3--5-5-----------------------------------------|
riff 2-
|----------------------------------------------------|
|----------------------------------------------------|
|--------------------5-----5-------------------------|
|----5-------4-------5-----5-------------------------|
|----5-------4-x-x-x-3-x-x-3-------------------------|
|-xx-3-x-x-x-2---------------------------------------|
extra 2nd guitar:
|----10---8---7--------------------------------------|
|-------8---8---8-8-8--------------------------------|
|----------------------------------------------------|
|----------------------------------------------------|
|----------------------------------------------------|
|----------------------------------------------------|
for more tabs email me at [email protected]




Ваше мнение



Капча