artist : NEW FOUND GLORY
song title : MY FRIENDS OVER YOU
album title : STICKS AND STONES
1st singel of the album!! cool pop song!!
PRE-VERSE
gtr 1
e------------------------------------------------------------------->
b------------------------------------------------------------------->
g------------------------------------------------------------------->
d--7-7-7---------5---7-7-------------------------------------------->
a--5-5-5---------5---5-5-----------5-5-5---------5---5-5-5---------->
E----------------------------------3-3-3---------3---3-3-3---------->
pm - - - -
gtr 2
e------------------------------------------------------------------->
b--5---5-7-5-----5-----5-7-5-------5---5-7-5-----5-----5-7-5-------->
g----7-------7-7---7-7-------7-7-7---7-------7-7---7-7-------7-7-7-->
d------------------------------------------------------------------->
a------------------------------------------------------------------->
E------------------------------------------------------------------->
gtr 1
e------------------------------------------------------3------------|
b------------------------------------------------------3------------|
g------------------------------------------------------4------------|
d--7-7-7---------7---7-7-------------------------------5------------|
a--5-5-5---------5---5-5-----------5-5-5---------5---5-5------------|
E----------------------------------3-3-3---------3---3-3------------|
pm - - - -
gtr 2
e-------------------------------------------------------------------|
b--5---5-7-5-----5-----5-7-5-------5---5-7-5-----5------------------|
g----7-------7-7---7-7-------7-7-7---7-------7-7---7-7-7------------|
d------------------------------------------------------5------------|
a-------------------------------------------------------------------|
E-------------------------------------------------------------------|
VERSE
gtr 1&2
e------------------------------------------------------------------->
b------------------------------------------------------------------->
g------------------------------------------------------------------->
d--7-7-7---------5---7-7-------------------------------------------->
a--5-5-5---------5---5-5-----------5-5-5---------5---5-5-5---------->
E----------------------------------3-3-3---------3---3-3-3---------->
pm - - - -
gtr 1&2
e------------------------------------------------------------------->
b------------------------------------------------------------------->
g------------------------------------------------------------------->
d--7-7-7---------5---7-7-------------------------------------------->
a--5-5-5---------5---5-5-----------2---2---2---2-4-5---5---5---5-4-->
E----------------------------------0---0---0---0-2-3---3---3---3-2-->
pm - -
gtr 1
e------------------------------------------------------------------->
b------------------------------------------------------------------->
g------------------------------------------------------------------->
d--7-7-7---------5---7-7-------------------------------------------->
a--5-5-5---------5---5-5-----------5-5-5---------5---5-5-5---------->
E----------------------------------3-3-3---------3---3-3-3---------->
pm - - - -
gtr 2
e------------------------------------------------------------------->
b------------------------------------------------------------------->
g------------------------------------------------------------------->
d--7-7-7---------5---7-7-------4h5---------------------------------->
a--5-5-5---------5---5-5-----------5-5-5---------5---5-5-5---------->
E----------------------------------3-3-3---------3---3-3-3---------->
pm - - - -
gtr 1 ______________3x_______________
e---------------------------------/-------------------------------\->
b------------------------------------------------------------------->
g------------------------------------------------------------------->
d--7-7-7---------5---7-7-------------------------------------------->
a--5-5-5---------5---5-5-----------2---2---2---2-4-5---5---5---5-4-->
E----------------------------------0---0---0---0-2-3---3---3---3-2-->
pm - -
gtr 2 ______________3x_______________
e---------------------------------/-------------------------------\->
b--5---5-7-5-----5-----5-7-5---------------------------------------->
g----7-------7-7---7-7-------7-7-7---------------------------------->
d------------------------------------------------------------------->
a----------------------------------2---2---2---2-4-5---5---5---5-4-->
E----------------------------------0---0---0---0-2-3---3---3---3-2-->
gtr 1&2
e-------------------------|
b-------------------------|
g-------------------------|
d-------------------------|
a--7-7---7-7-7---7-7-7-7--|
E--5-5---5-5-5---5-5-5-5--|
CHORUS
gtr 1 play all notes 4x
e---------------------------------->
b---------------------------------->
g----------------------------------> 2x
d--7---7---7---7------------------->
a--5---5---5---5---5---5---5---5--->
E------------------3---3---3---3--->
gtr2 *=4x #=2x pick slide last time!
e---------------------------------->
b---*---*---*---*---*---*---*---#-#>
g--7---7---7---7---7---7---7---7-6-> 2x
d--x---x---x---x---x---x---x---x-x->
a--5---5---5---5---5---5---5---5-4->
E---------------------------------->
gtr 1 *=4x
e-------------------------------------------------------------|
b-------------------------------------------------------------|
g---*---*---*---*-------------------*---*---*---*-------------|
d--4---4---4---4----*---*---*---*--4---4---4---4---------7----|
a--2---2---2---2---5---5---5---5---2---2---2---2---5-4-2-5-7--|
E------------------3---3---3---3-------------------3-2-0---5--|
gtr 2 *=4x
e-------------------------------------------------------------|
b-------------------------------------------------------------|
g--4---4---6---7-----------6---7---4---4---6---7--------------|
d--x---x---x---x---5---5---x---x---x---x---x---x---------7----|
a--2---2---4---5---x---x---4---5---2---2---4---5---5-4-2-5-7--|
E------------------3---3---------------------------3-2-0---5--|
then play pre-verse, verse, chorus.
INTERLUDE
gtr 1 (gtr 2 silent)
e----------------------------------->
b----------------------------------->
g----------------------------------->
d----------------------------------->
a--5--------5------2--------2--0---->
E-----2--3-----2-3----2--3--------2->
gtr 1&2
e-----------------------------------|
b-----------------------------------|
g-----------------------------------|3x
d--7--------7------4--------4--2----|
a--5--4--5--5--4-5-2--4--5--2--0--4-|
E-----2--3-----2-3----2--3--------2-|
BRIDGE
gtr 1 (gtr 2 generate feedback)
e-------------------->
b-------------------->
g-------------------->3x
d-------------------->
a--2---xx4-5----5555->
E--0---xx2-3----3333->
gtr 1&2
e-------------------------|
b-------------------------|
g-------------------------|
d-------------------------|
a--7-7---7-7-7---7-7-7-7--|
E--5-5---5-5-5---5-5-5-5--|
then play chorus 2x, pre-verse.
thats it!! it's 100% right! i hope!!
tabbed by rian sigit ([email protected])




Ваше мнение



Капча