New Found Glory
My Friends Over You
By God Of F**k
This is my first tab so be gentle I got some help from the forum and watched them live and the video.
Intro
Guitar 1
e|----------------------------------
b|----------------------------------
g|--7-7---7-7--7--------------------
d|--7-7---7-7--7----5-5---5-5--5----
a|--5-5---5-5--5----5-5---5-5--5----
E|------------------3-3---3-3--3----
pm-- pm--
Guitar 2 (Lead Riff)
e|-0-----0--2--0---------0---------0--2--0---------------
B|----3-----------3--3-----3--3-------------3--3--3------
G|-------------------------------------------------------
D|-------------------------------------------------------
A|-------------------------------------------------------
E|-------------------------------------------------------
Verse
e|----------------------------------
b|----------------------------------
g|--7-7---7-7--7--------------------
d|--7-7---7-7--7----5-5---5-5--5----
a|--5-5---5-5--5----5-5---5-5--5----
E|------------------3-3---3-3--3----
pm-- pm--
e|----------------------------
b|----------------------------
g|----------------------------
d|--2--2--2--2---5--5--5--5---
a|--2--2--2--2---5--5--5--5---
E|--0--0--0--0---3--3--3--3---

To Lead You On
e|-----------------
b|-----------------
g|--77777----------
d|--77777----------
a|--55555----------
E|-----------------
Chorus
Guitar 1 x2
e|-----------------------------
b|-----------------------------
g|--777777777777---------------
d|--777777777777--555555555555-
a|--555555555555--555555555555-
E|----------------333333333333-
e|----------------------------------------------------------
b|----------------------------------------------------------
g|----------------------------------------------------------
d|---------999999999999--555555555555--999999999------------
a|---------999999999999--555555555555--999999999------------
E|-Slide---777777777777--333333333333--777777777-7-3-5-3-0--
Interlude
e|------------------------------
b|------------------------------
g|------------------------------
d|------------------------------
a|--5------5--------------------
E|----3-5----5-3-7-3-5-7-5-3----
(Clean)
You Need This
e|-------------------------------------
b|-------------------------------------
g|--7-7-xx-7-----------------7-7-xx-7--
d|--7-7-xx-7-----5-5-xx-5----7-7-xx-7--
a|--5-5-xx-5-----5-5-xx-5----5-5-xx-5--
E|---------------3-3-xx-3--------------

To Lead You On
e|-----------------
b|-----------------
g|--77777----------
d|--77777----------
a|--55555----------
E|-----------------




Ваше мнение



Капча