THIS IS NOT AN NFG SONG IT IS A BAND NOT LISTED (WRECKED HIM)
;This is a really good song by a shit hot band i heard at college.
;tabed by:nick mills
intro/outro
g----2-----2----------------------------------------------------------
d-3-3-3-0-0-0---5-----3-----------------------------------------------
a------------3-3-3-1-1-0----------------------------------------------
e---------------------------------------------------------------------
verse
g---------------------------------------------------------------------
d-3-3-3-3-------------------------------------------------------------
a--------0-0-0-0-3-3-3-3-1-1-1-1--------------------------------------
e --------------------------------------------------------------------
chorus
g---------------------------------------------------------------------
d---------------------------------------------------------------------
a-----------------5-5-5-5---------------------------------------------
e-1-1-1-1-5-5-5-5--------6-6-6-6--------------------------------------
a good song to play (if you have heard it) if not go to their web-site
and bug them for a copy of their E.P www.tasteslikechicken.i8.com.


Ваше мнение



Капча