New Found Glory - It Never Snows In Florida
Tabbed By: Francis Krahe
EMail: [email protected]
chords:
G5 A5 B5 D5
|------------------|
|------------------|
|----------4---7---|
|--5---7---4---7---|
|--5---7---2---5---|
|--3---5-----------|
|----------------------------------5h7--7-7--5h7p5--|
|--3-3-3h5-3--3--3h5-7-7--3h5-7-7-------------------|
|o--------------------------------------------------|
|o--------------------------------------------------|
|---------------------------------------------------|
|---------------------------------------------------|
|--3--3-3h5p3-2--2-2h3p2-0--0-0h2p0--|-------10--|
|------------------------------------|----10-----|
|-----------------------------------o|--7--------|
|-----------------------------------o|-----------|
|------------------------------------|-----------|
|------------------------------------|-----------|
(repeat twice) (play 2nd
time thru)
D5
distance means nothing to me
it only makes me want to see you longer
[riff a]
|---------------------------------------|
|---------------------------------------|
|---------------------------------------|
|--0-0-0--4-4-4--2-2-2--0-0-0--5-5-4-4--|
|---------------------------------------|
|---------------------------------------|




Ваше мнение



Капча