Artist: New Found Glory
Music: I Want It That Way (Punk Cover Song)(Backstreet Boys)
Tabbed By: Paulo Sergio Mussolini de Moraes (Brazil)
Legend:

/ - slide up
- slide down
~ - let ring
Normal tuning (EADBGe)
Intro:
Guitar 1 (Clean)

Gm D# A# Gm D# A#
2x
e|----------------------------------3--------------------------|
B|------3-----3-------------6---------3------------------6-----|
G|--------3-----3-----8-------------------3-------8------------|
D|----5-----5-------8-----8--------5----5-------8-------8------|
A|--5-------------6-----8--------5----------5-6-------8--------|
E|--3-------------------6-----6--3------------------6------6---|
Gm D# A# Gm D# A#
2x 1x and go to verse
e|-----3------------------------||-----------------------------|
B|-------3------------------6---||------3-----3-------------6--|
G|-----------3-------8----------||--------3-----3-----8--------|
D|----5----5-------8-------8----||----5-----5-------8-----8----|
A|--5----------5-6-------8------||--5-------------6-----8------|
E|--3------------------6------6-||--3-------------------6------|

Guitar 2 (W/dist) - play after guitar 1 plays intro only 2x
1x
e|-----------------------------------------------------------|
B|-----------------------------------------------------------|
G|-----8-/-10-------8--10-------8--10------8--10----------|
D|-5---x-/-x----5---x--x----5---x--x---5---x--x-----------|
A|-5---6-/-8----5---6--8----5---6--8---5---6--8-----------|
E|-3------------3------------3-----------3-------------------|
Verse 1:
Guitar 1 (WDist)
4x
e|--------------------------------|
B|--------------------------------|
G|-----------------8-8-8----------|
D|-5-5-5-5-5-5-5-5-8-8-8-8-8-8-8--|
A|-5-5-5-5-5-5-5-5-6-6-6-8-8-8-8--|
E|-3-3-3-3-3-3-3-3-------6-6-6-6--|
PM|..............................|
Guitar 2 (WDist)
1x
e|---------------------------------------|
B|---------------------------------------|
G|----8--7-----8--10--12--8--7-----8--10-|
D|-5--x--x--5--x--x---x---x--x--5--x--x--|
A|-5--6--5--5--6--8---10--6--5--5--6--8--|
E|-3--------3-------------------3--------|
Chorus:
Guitar 1(WDist)
3x Last
e|----------------------------------||------------------------
B|----------------------------------||------------------------
G|--8-8-8-8-8-8-8-8-----------------||------------------------
D|--8-8-8-8-8-8-8-8-8-8-8-5-5-5-5-5-||--5-5-5-5-5-5-5-5-7-7-7-
A|--6-6-6-6-6-6-6-6-8-8-8-5-5-5-5-5-||--5-5-5-5-5-5-5-5-7-7-7-
E|------------------6-6-6-3-3-3-3-3-||--3-3-3-3-3-3-3-3-5-5-5-
----------|
----------|
----------|
--8-8-8-8-|
--8-8-8-8-|
--6-6-6-6-|
Guitar 2(WDist)
3x Last
e|-------------------------------------||-----------------------
B|-------------------------------------||-----------------------
G|--8-8-8-8-8-8-8-8-10-10-10-7-7-7-7-7-||-12-12-12-10-10-10-8-8-
D|--x-x-x-x-x-x-x-x-x--x--x--x-x-x-x-7-||-x--x--x--x--x--x--x-x-
A|--6-6-6-6-6-6-6-6-8--8--8--5-5-5-5-5-||-10-10-10-8--8--8--6-6-
E|-------------------------------------||-----------------------
----------------|
----------------|
----------------|
--7-7-7-8-8-8-8-|
--7-7-7-8-8-8-8-|
--5-5-5-6-6-6-6-|
Verse 2:
Guitar 1(WDist)
4x
e|----------------------------------|
B|----------------------------------|
G|------------------8-8-8-----------|
D|--5-5-5-5-5-5-5-5-8-8-8-8-8-8-8-8-|
A|--5-5-5-5-5-5-5-5-6-6-6-8-8-8-8-8-|
E|--3-3-3-3-3-3-3-3-------6-6-6-6-6-|
PM|................................|
Guitar 2(WDist)
1x
e|---------------------------------------|
B|---------------------------------------|
G|-----8--7-----8--10-12--8--7-----8--10-|
D|--5--x--x--5--x--x--x---x--x--5--x--x--|
A|--5--6--5--5--6--8--10--6--5--5--6--8--|
E|--3--------3------------------3--------|
Chorus 2:
Guitar 1(WDist)
3x Last
e|----------------------------------||--------------------------
B|----------------------------------||--------------------------
G|--8-8-8-8-8-8-8-8-----------------||------------------8-8-8-8-
D|--8-8-8-8-8-8-8-8-8-8-8-5-5-5-5-5-||--5-5-5-5-5-5-5-5-8-8-8-8-
A|--6-6-6-6-6-6-6-6-8-8-8-5-5-5-5-5-||--5-5-5-5-5-5-5-5-6-6-6-6-
E|------------------6-6-6-3-3-3-3-3-||--3-3-3-3-3-3-3-3---------
let ring
-------------|
-------------|
--8-8-8-8----|
--8-8-8-8-8~-|
--6-6-6-6-8~-|
----------6~-|
Guitar 2(WDist)
3x Last
e|-------------------------------------||------------------------
B|-------------------------------------||------------------------
G|--8-8-8-8-8-8-8-8-10-10-10-7-7-7-7-7-||--12-12-12-10-10-10-8-8-
D|--x-x-x-x-x-x-x-x-x--x--x--x-x-x-x-x-||--x--x--x--x--x--x--x-x-
A|--6-6-6-6-6-6-6-6-8--8--8--5-5-5-5-5-||--10-10-10-8--8--8--6-6-
E|-------------------------------------||------------------------
let ring
---------------------|
---------------------|
--8-8-8-8-8-8-8-8----|
--8-8-8-8-8-8-8-8-8~-|
--6-6-6-6-6-6-6-6-8~-|
------------------6~-|
Bridge
Guitar 1(WDist)
1x 1x
e|---------------||------------------||---------------------------
B|---------------||------------------||---------------------------
G|-------------3-||------------------||-----8-------8-------------
D|--5------3---3-||--3-3-3-3-3-3-3-3-||--5--8-8--5--8-8---5-5-5-5-
A|--5------3---1-||--3-3-3-3-3-3-3-3-||--5--6-8--5--6-8---5-5-5-5-
E|--3------1-----||--1-1-1-1-1-1-1-1-||--3----6--3----6---3-3-3-3-
PM|...............| PM|........
-----------------------------------------|
-----------------------------------------|
----------8-8-8--------------------------|
--5-5-5-5-8-8-8-8-8-8-5-5-5-5-5-5-5-55-3-|
--5-5-5-5-6-6-6-8-8-8-5-5-5-5-5-5-5-55-3-|
--3-3-3-3-------6-6-6-3-3-3-3-3-3-3-33-1-|
......................................|
Guitar 2(WDist)
1x 1x 1x
e|---------------||------------------||---------------------------
B|---------------||------------------||---------------------------
G|--12-----10--7-||------------------||-----8-10----8-10----------
D|--x------x---x-||--3-3-3-3-3-3-3-3-||--5--x-x--5--x-x---5-5-5-5-
A|--10-----8---5-||--3-3-3-3-3-3-3-3-||--5--6-8--5--6-8---5-5-5-5-
E|---------------||--1-1-1-1-1-1-1-1-||--3-------3--------3-3-3-3-
PM|...............| PM|........
--------------------------------------------|
--------------------------------------------|
----------8-8-8-10-10-10--------------------|
--5-5-5-5-x-x-x-x--x--x--5-5-5-5-5-5-5-55-3-|
--5-5-5-5-6-6-6-8--8--8--5-5-5-5-5-5-5-55-3-|
--3-3-3-3----------------3-3-3-3-3-3-3-33-1-|
.........................................|
Last Chorus
Guitar 1(WDist)
3x
e|---------------------------------------------------------------
B|---------------------------------------------------------------
G|------------------3-3-3--------------------------3-3-3---------
D|--3-3-3-3-3-3-3-3-3-3-3-6-6-6-6--3-3-3-3-3-3-3-3-3-3-3-6-6-6-6-
A|--3-3-3-3-3-3-3-3-1-1-1-6-6-6-6--3-3-3-3-3-3-3-3-1-1-1-6-6-6-6-
E|--1-1-1-1-1-1-1-1-------4-4-4-4--1-1-1-1-1-1-1-1-------4-4-4-4-
----------------------------------------------------------------|
----------------------------------------------------------------|
------------------3-3-3-----------------------------------------|
--3-3-3-3-3-3-3-3-3-3-3-6-6-6-6-x6-6-6-6-6-6-6-6-8-8-8-9-9-9-9--|
--3-3-3-3-3-3-3-3-1-1-1-6-6-6-6-x6-6-6-6-6-6-6-6-8-8-8-9-9-9-9--|
--1-1-1-1-1-1-1-1-------4-4-4-4-x4-4-4-4-4-4-4-4-6-6-6-7-7-7-7--|
Guitar 2(WDist)
3x 1x
e|-------------------------------------------|------------------
B|-------------------------------------------|------------------
G|--10-10-10-10-10-10-10-10-12-12-12-9-9-9-9-|-x9-9-9-9-9-9-9-9-
D|--x--x--x--x--x--x--x--x--x--x--x--x-x-x-x-|-xx-x-x-x-x-x-x-x-
A|--8--8--8--8--8--8--8--8--10-10-10-7-7-7-7-|-x7-7-7-7-7-7-7-7-
E|-------------------------------------------|------------------
----------------|
----------------|
----------------|
--8-8-8-9-9-9-9-|
--8-8-8-9-9-9-9-|
--6-6-6-7-7-7-7-|
Final
Both guitars
e|-----------|
B|-----------|
G|-----------| End
D|-6---8--9--|
A|-6---8--9--|
E|-4---6--7--|




Ваше мнение



Капча