Band: New Found Glory
Song: I Don't Wanna Miss a Thing
Tabbed by: Adriбn
Listen to the song for the rithms.
x= palm mute
Intro:
|-----------------------|
|-----------------------|
|-7--7----4-------------|
|-7--7----4---5--4----2-| x2
|-5--4----2---5--4----2-|
|-------------3--2----0-|
|------------------|
|------------------|
|-----------222222-|
|-4---5-----222222-|
|-4---5-----000000-|
|-2---3------------|
xxxxx
Chorus:
|---------------------------------------------------------------------|
|---------------------------------------------------------------------|
|-77-77-----------------------77-77-------------------------77-77---2-|
|-77-77---222222---555555-----77-77---2222222222---333333-----77-77---2-|
|-55-44---222222---555555-----55-44---2222222222---333333-----55-44---0-|
|---------000000-2-333333-------------0000000000-2-555555---------------|
xxxxxxxxxx
Verse:
1 guitar:
|---------------------------------------|
|---------------------------------------|
|-777--777---444444---------------------|
|-777--777---444444---555--444---222222-|
|-555--444---222222---555--444---222222-|
|---------------------333--222---000000-|
xx xx xx xx xx xx xx xx
|-------------------------------------------|
|-------------------------------------------|
|-777--777---444444--------------2222222222-|
|-777--777---444444----4444-5555-2222222222-|
|-555--444---222222----4444-5555-0000000000-|
|----------------------2222-3333------------|
xx xx xx xx
2 guitar:
|-----------------------------------------|
|-----------------------------------------|
|-----------------------------------------|
|-4444-5555------------5555-4444-22222222-|
|-----------55555555----------------------|
|-----------------------------------------|
CHORUS
Bridge:
|-------------------------------------|
|-------------------------------------|
|-55555555-44444444-33333333-22222222-|
|-55555555-44444444-33333333-22222222-| x2
|-33333333-22222222-11111111-00000000-|
|-------------------------------------|
|------------------|
|------------------|
|-2222222222222222-|
|-2222222222222222-|
|-0000000000000000-|
|------------------|
CHORUS x2
(I am not sure about the whole end)
but it ends on:
|---|
|---|
|-7-|
|-7-|
|-5-|
|---|




Ваше мнение



Капча