----------------------------------------------------------------------------
I Dont Wanna Know - New Found Glory
----------------------------------------------------------------------------
Tabbed by: Andy
Email: [email protected]

Tuning: eBGDAE (Standard)

Intro/Verse
e|-------------------------------------]-----------------------------------|
B|-----0--------0--------0--------0----]-----------------------------------|
G|-2-0---0--2-0---0--2-0---0--2-0---0--]--2 times--------------------------|
D|-------------------------------------]-----------------------------------|
A|-------------------3-3------3-3------]-----------------------------------|
E|-3-3------3-3------------------------]-----------------------------------|
I dont wanna know (2nd time) then goes into verse

Verse (Play either this or the intro for the verse)
G C Em7 C
e|----3-------0---------0--------0-----------------------------------------|
B|----3-------1---------3--------1-----------------------------------------|
G|----0-------0---------0--------0-----------------------------------------|
D|----0-------2---------2--------2-----------------------------------------|
A|----2-------3---------2--------3-----------------------------------------|
E|----3-----------------0--------------------------------------------------|
The strumming is pretty easy and theres not really a difference in the chorus
verse....Just listen to the song or do what sounds right.

Bridge
Em7 D C
e|-----0------2--------0---------------------------------------------------|
B|-----3------3--------1---------------------------------------------------|
G|-----0------2--------0---------------------------------------------------|
D|-----2------0--------2---------------------------------------------------|
A|-----2---------------3---------------------------------------------------|
E|-----0-------------------------------------------------------------------|
The Awkward ways we meet (I cant wait till we meet again




Ваше мнение



Капча