Group: New Found Glory
Song:Hit Or Miss
intro 1:
e|--------/-------------------------------------------------------------|
B|--------/-------5-----------------------------------------------------|
G|--------/-----5---5---------------------------------------------------|
D|--5-----/-------------------------------------------------------------|
A|--5-----/-------------------------------------------------------------|
E|--3-----/-------------------------------------------------------------|
intro 2/chorus 2:
e|----------------------------------------------------------------------|
B|---------------------------------------5---5--------------------------|
G|--5-5-5-5--7-7-7-7--5-5-5-5--------------5----------------------------|
D|--5-5-5-5--7-7-7-7--5-5-5-5--5-5-5-5----------------------------------|
A|--3-3-3-3--5-5-5-5--3-3-3-3--5-5-5-5----------------------------------|
E|-----------------------------3-3-3-3----------------------------------|
verse 1: palm mute when necessary
e|----------------------------------------------------------------------|
B|----------------------------------------------------------------------|
G|----------------------------------------------------------------------|
D|-5-5-5-5-5-5-5-5--7-7-7-7-7-7-7-7--3-3-3-3-3-3-3-3--5-5-5-5-5-5-5-5-5-|
A|-5-5-5-5-5-5-5-5--7-7-7-7-7-7-7-7--3-3-3-3-3-3-3-3--5-5-5-5-5-5-5-5-5-|
E|-3-3-3-3-3-3-3-3--5-5-5-5-5-5-5-5--1-1-1-1-1-1-1-1--3-3-3-3-3-3-3-3-3-|
chorus 1:
e|---------------------------------------------------------------------|
B|---------------------------------------------------------------------|
G|-------------------5-5-5-5--7-7-7-7----------------------------------|
D|-5-5-5-5--7-7-7-7--5-5-5-5--7-7-7-7----------------------------------|
A|-5-5-5-5--7-7-7-7--3-3-3-3--5-5-5-5----------------------------------|
E|-3-3-3-3--5-5-5-5----------------------------------------------------|
Verse 2:
e|---------------------------------------------------------------------|
B|---------------------------------------------------------------------|
G|-------------------5-5-5-5-5-5-5-5-----------------------------------|
D|-5-5-5-5--7-7-7-7--5-5-5-5-5-5-5-5-----------------------------------|
A|-5-5-5-5--7-7-7-7--3-3-3-3-3-3-3-3-----------------------------------|
E|-3-3-3-3--5-5-5-5----------------------------------------------------|
p.m............... open
chorus 2
verse 1
chorus 1
verse 2
chorus 2
Interlude: heavy palm mute and harmonics when nescessary
e|-------------------------------------/-------------------------------|
B|-------------------------------------/-------------------------------|
G|-------------------------------------/-------------------------------|
D|-------------------------------------/---5---2-2-2-2-2-2-2-2---------|
A|-5-5-5-5--7-7-7-7--5-5-5-5--3-3-3-3--/---5---2-2-2-2-2-2-2-2---------|
E|-3-3-3-3--5-5-5-5--3-3-3-3--1-1-1-1--/---3---0-0-0-0-0-0-0-0---------|




Ваше мнение



Капча