---------------------------------
Hit Or Miss -- New Found Glory
---------------------------------
Hey! I was on this site and noticed that there was no completely correct tab for this song.
This was the song that got me into punk so as you can see it saved my life.

Guitar 1 is rythm and
guitar 2 is lead. Enjoy!
*=palm mute
~= let ring
G1= Guitar 1
G2= Guitar 2
Intro 1 G1 3x Intro 1 G2 1x
|-----------------| |---------------------------------|
|-----------------| |---------------------------------|
|-999-----666-----| |-999-----666-----999-----666-----|
|-999-999-666-777-| |-999-999-666-777-999-999-666-777-|
|-777-999-444-777-| |-777-999-444-777-777-999-444-777-|
|-----777-----555-| |-----777-----555-----777-----555-|

Intro 2 G1 1x Intro 2 G2 1x
|---------------------| |-----------|
|---------------------| |-----------|
|-9999------6666------| |-9~9~~~~~~~|
|-9999-9999-6666-7777-| |-9~~~9~~~~~|
|-7777-9999-4444-7777-| |-7~~~~~7~~~|
|------7777------5555-| |-----------|
**** **** **** ****
Guitar 1 repeats intro 1

Intro 3 G2 1x
|--------------------------------------------------------------------------|
|--------------------------------------------------------------------------|
|-999-----666-----999-----666-----999-11-11-11-13-13-13-11-11-11-999-9-----|
|-999-999-666-777-999-999-666-777-999-11-11-11-13-13-13-11-11-11-999-9-9-7-|
|-777-999-444-777-777-999-444-777-777--9--9--9-11-11-11--9--9--9-777-7-9-7-|
|-----777-----555-----777-----555--------------------------------------7-5-|

Verse 1x Both Guitars
|-----------------------------------------------------------------------|
|-----------------------------------------------------------------------|
|-----------44-4-44-4-66-6-66-6-44-4-44-4-----------44-4-44-4-66-6-66-6-|
|-22-2-22-2-44-4-44-4-66-6-66-6-44-4-44-4-22-2-22-2-44-4-44-4-66-6-66-6-|
|-22-2-22-2-22-2-22-2-44-4-44-4-22-2-22-2-22-2-22-2-22-2-22-2-44-4-44-4-|
|-00-0-00-0-------------------------------00-0-00-0---------------------|
** ** ** ** ** ** ** ** ** ** ** ** ** **

Verse cont.
Both Guitars Bridge 1 Both Guitars 2x
|----------| |-------------------------------------|
|----------| |-------------------------------------|
|-99999999-| |----------44444444-66666666-99999999-|
|-99999999-| |-22222222-44444444-66666666-99999999-|
|-77777777-| |-22222222-22222222-44444444-77777777-|
|----------| |-00000000----------------------------|

Bridge 2 Both Guitars
|---------------------|
|---------------------|
|-99-9------66-666666-|
|-99-9-99-9-66-666666-|
|-77-7-99-9-44-444444-|
|------77-7-----------|
** ** **

Guitar 1 plays intro 1 2x for the chorus
Guitar 2 plays intro 3 2x for the chorus

Third verse both guitars 4x
|---------------------------------|
|---------------------------------|
|---------4-44-44-6-66-66-4-44-44-|
|-2-22-22-4-44-44-6-66-66-4-44-44-|
|-2-22-22-2-22-22-4-44-44-2-22-22-|
|-0-00-00-------------------------|
** ** ** **
after bass
Both guitars
|-------|
|-------|
|-9~~~~~|
|-9~~~~~|
|-7~~~~~|
|-------|

Then Guitar 1 does intro 2 while guitar 2 does a pickscrape
Guitar 1 Order: Guitar 2 order:
intro 1 Intro 1
intro 2 Intro 2
verse Intro 3
bridge 1 Verse
bridge 2 Bridge 1
chorus Bridge 2
verse Chorus
bridge 1 Verse
bridge 2 Bridge 1
chorus Bridge 2
third verse Chorus
after bass Third Verse
intro 2 After Bass
chorus Pickscrape
Chorus

This should be accurate. I play in a band called Stikman Mafia, and it sounds
right when we play it. Enjoy!




Ваше мнение



Капча