New Found Glory - Goonies R Good Enough
Tabbed By: Danny Feierman
EMail: [email protected]
x-palm mute
intro
e|------------------------------------|
B|------------------------------------|
G|----6-666-66------------------------|
D|----6-666-66---6-6-9----------------|
A|----4-444-44---6-6-9----------------|
E|---------------4-4-7----------------|
Solo
e|--------------------------------|
B|-9-9---9-9------9-9---7-7-9-----|
G|-----7-----7--------7-----------|
D|--------------------------------|
A|--------------------------------|
E|--------------------------------|
verse
e|----------------------------------------------------------------|
B|----------------------------------------------------------------|
G|------------------4-4-4-4-4-4-4-4-6-6-6-6-6-6-6-4-4-4-4-4-4-4-4-|
D|--2-2-2-2-2-2-2-2-4-4-4-4-4-4-4-4-6-6-6-6-6-6-6-4-4-4-4-4-4-4-4-|
A|--2-2-2-2-2-2-2-2-2-2-2-2-2-2-2-2-4-4-4-4-4-4-4-2-2-2-2-2-2-2-2-|
E|--0-0-0-0-0-0-0-0-----------------------------------------------|
pre chorus
e|----------------------------------------------------|
B|----------------------------------------------------|
G|--2-2-2--44444444--------------------2-2-2-44444444-|
D|--2-2-2--44444444---2-2-2-4444-6666--2-2-2-44444444-|
A|--0-0-0--22222222---2-2-2-4444-6666--0-0-0-22222222-|
E|--------------------0-0-0-2222-4444-----------------|
chorus
e|----------------------------------------------------------------
B|----------------------------------------------------------------
G|----------------------------------2-2-2-2-2-2-2-4-4-4-4-4-4-4-4-
D|--2-2-2-2-2-2-2-2-6-6-6-6-6-6-6-6-2-2-2-2-2-2-2-4-4-4-4-4-4-4-4-
A|--2-2-2-2-2-2-2-2-6-6-6-6-6-6-6-6-0-0-0-0-0-0-0-2-2-2-2-2-2-2-2-
E|--0-0-0-0-0-0-0-0-4-4-4-4-4-4-4-4-------------------------------
--------------------------------|
--------------------------------|
----------------2-2-2-2-2-2-2-2-|
6-6-6-6-6-6-6-6-2-2-2-2-2-2-2-2-|
6-6-6-6-6-6-6-6-0-0-0-0-0-0-0-0-|
4-4-4-4-4-4-4-4-----------------|
x x x x x x x x x x x x x x x x
Guitar 1: Guitar 2:
intro:4x Solo:4x
verse:2x verse:2x
pre chorus: pre chorus:
chorus:2x chorus:x
intro:4x Solo:4x
verse:2x verse:2x
pre chorus: pre chorus:
chorus:2x chorus:2x
intro:8X Solo:8x
pre chorus: pre chorus:
chorus:2x chorus:2x
intor:4x Solo:4x
Both Guitar's end with (x466xx)
P S the Goonies was a cool movie dude's.




Ваше мнение



Капча