Band: New Found Glory
Song: Forget Everything
Album: Sticks and Stones
Tuning: Standard (EADGBE)
Tabbed by: Mark ([email protected])
Chorus
E -------------------
B -------------------
G -----7777-9999-7777
D 7777-7777-9999-7777
A 7777-5555-7777-5555
E 5555---------------
Verse
E -------------------------
B -------------------------
G -------------------------
D 777777-444444-22222-22222
A 777777-444444-22222-22222
E 555555-222222-00000-00000
PM----- ----- ---- ----
Pre-Chorus (Guitar 1) (Guitar 2)
E ------------- E ----------------
B ------------- B ----------------
G 7777-6666-9-9 G ----------------
D 7777-6666-9-9 D -3-4—7-5-4—7-5-9
A 5555-4444-7-7 A ----------------
E ------------- E ----------------
Bridge
E ----------------------------------
B ----------------------------------
G ---------66-66-66-7777777-99999999
D 77-77-77-66-66-66-7777777-99999999
A 77-77-77-44-44-44-5555555-77777777
E 55-55-55--------------------------
PM. -- --
End
E -----------------------
B -----------------------
G -----7777-9-9-7-7------
D 7777-7777-9-9-7-7-77777
A 7777-5555-7-7-5-5-77777
E 5555--------------55555
PM. -----
Song Sequence:
Chorus (2x)
Verse (4x)
Pre-Chorus
Chorus (4x)
Verse (4x)
Pre-Chorus
Chorus (4x)
Bridge (2x)
Pre-Chorus
Chorus (5x)
End
I know that the tab isn’t entirely correct, but it’s the first time I have
tabbed a song so don’t blame me. If you got any corrections please mail them to
[email protected] Thanks




Ваше мнение



Капча