-------------------------------------------------------------------------------
Failures Not Flattering - New Found Glory
-------------------------------------------------------------------------------
Tabbed by: Steve Bourgeois
Email: [email protected]
This is my first tab, It's not 100% but I hope it is helpful.
Tuning: standard
Intro:
e|-----------------------------|
B|------------7*-----(syths)---|
G|7-----4--2----7*-------------|
D|7--5--4--2------7*-----------|
A|5--5--2--0-------------------|
E|---3-------------------------|
Verse:
e|-----------------------|
B|-----------------------| Listen for rythem
G|7-----4--2-----(PM)----|
D|7--5--4--2--5----------|
A|5--5--2--0--5----------|
E|---3--------3----------|
Chorus:
e|----------------------------------------------|
B|----------------------------------------------|
G|7-----4-------(Same as Intro, w/out syths)----|
D|7--5--4--7------------------------------------|
A|5--5--2--7------------------------------------|
E|---3-----5------------------------------------|
Post Verse:
e|-----------------|
B|-----------------|
G|7----------------|
D|7--5--2--5-------|
A|5--5--2--5-------|
E|---3--0--3-------|
Breakdown:
e|---------------| Then play e|---------------------|
B|---------------| B|---------------------|
G|7--(play alot)-| G|12--11--9--7---------|
D|x--------------| D|-x---x--x--x---------|
A|5--------------| A|10---9--7--5---------|
E|---------------| E|---------------------|
Outro: same as Post Chorus
End On:
e|----------------|
B|----------------|
G|-7--------------|
D|-7--------------|
A|-5--------------|
E|----------------|
| / slide up
| slide down
| h hammer-on
| p pull-off
| ~ vibrato
| * harmonic
| x Mute note
===============================================================================




Ваше мнение



Капча