New Found Glory - Eyesore
By:Andrew Mcshan([email protected])
Verses
e|-------------------------------|
B|-------------------------------|
G|-------------6-----------------|
D|---7----4----6----2------------|
A|---7----4----4----2------------|
E|---5----2---------0------------|
Chorus
e|---------------------------------------------------------------------------|
B|---------------------------------------------------------------------------|
G|--------7------------------------------------------------------------------|
D|---4----7----7------2------------------------------------------------------|
A|---4----5----7------2------------------------------------------------------|
E|---2---------5------0------------------------------------------------------|
Bridge:
e|--------------------------------------------|
B|--------------------------------------------|
G|-----------7-7-x-x------7-------------------|
D|--7-7-x-x--7-7-x-x--4---7-------------------|
A|--7-7-x-x--5-5-x-x--4---5-------------------|
E|--5-5-x-x-----------2-----------------------|
Forget me not
Those werent your words
Im home havent you heard the ring
The sound of my voice
I know it isnt much
Thats why I say your name
When I fall when I hit the bottom

Girl play on
The boys will stay even if youre gone
Go girl play on
The boys will stay even if youre gone

Ive missed you
Those werent your words
Seeing you became a charm
And everyday I wish I could
Everyday...I say your name
When I fall when I hit the bottom

Girl play on
The boys will stay even if youre gone
Go girl play on
The boys will stay even if youre gone




Ваше мнение



Капча