Artist: New Found Glory
Title: Everything i do( i do for you )
Tabbed by: Tom Blizzard(aka Tin-Tin)
[email protected]
Im guessing they use major reverb at the beginning, and you might wana try playing it on
the part of your string nearest to the bridge.Then they use a tiny bit of distortion.Not
as in a distortion pedal though.And thats about it
Intro
e---1-----1-----1------2--4--2--1-----------------------------4-------------------------|
B------2-----2-----2-------------------4-----4-----4-------4-----4----1-----------------|
G-------------------------------------------5-----5----5--------------------------------|
D---------------------------------------------------------------------------------------|
A---------------------------------------------------------------------------------------|
E---------------------------------------------------------------------------------------|
e---------------------------2---------1-------------------------------------------------|
B---2-----2-----2------2-----2--------------4----4--------------------------------------|
G-----3-----3-----3--------------------------------5------------------------------------|
D---------------------------------------------------------------------------------------|
A---------------------------------------------------------------------------------------|
E---------------------------------------------------------------------------------------|
Verses
e|--------------------------------------------------------------------------------------|
B|--------------------------------------------------------------------------------------|
G|-----------------6-----------------6------------------6-------------------------------|
D|-----------------6-----------------6--8---------------6-------------------------------|
A|-----------------4-----------------3--8---------------4-------------------------------|
E|--------------------------------------6---------------4-------------------------------|
e|--------------------------------------------------------------------------------------|
B|--------------------------------------------------------------------------------------|
G|-----------------6-----------------6------------------4-------------------------------|
D|-----------------6-----------------6--8---------------6-------------------------------|
A|-----------------4-----------------3--8---------------6-------------------------------|
E|--------------------------------------6---------------4-------------------------------|
Bridge
e|--------------------------------------------------------------------------------------|
B|--------------------------------------------------------------------------------------|
G|--------------8-------------------6---------------------------------------------------|
D|--------------8-------------------6---------------------------------------------------|
A|--------------6-------------------4---------------------------------------------------|
E|--------------------------------------------------------------------------------------|
Chorus
e|--------------------------------------------------------------------------------------|
B|--------------------------------------------------------------------------------------|
G|-------------6---------------6----------6---------------------------------------------|
D|-------------6---------------6----------6---------------------------------------------|
A|-------------4---------------3----------4---------------------------------------------|
E|--------------------------------------------------------------------------------------|
( theres no love...)
e|--------------------------------------------------------------------------------------|
B|--------------------------------------------------------------------------------------|
G|-4-4-4-4-4-4-4-4-4-4-4-4---------------------------4-4-4-4-4-4-4-4-4-4-4-4------------|
D|-4-4-4-4-4-4-4-4-4-4-4-4--2-2-2-2-2-2-2-2-2-2-2-2--4-4-4-4-4-4-4-4-4-4-4-4------------|
A|-2-2-2-2-2-2-2-2-2-2-2-2--2-2-2-2-2-2-2-2-2-2-2-2--2-2-2-2-2-2-2-2-2-2-2-2------------|
E|--------------------------0-0-0-0-0-0-0-0-0-0-0-0-------------------------------------|
e|--------------------------------------------------------------------------------------|
B|--------------------------------------------------------------------------------------|
G|--------------------------6-6-6-6-6-6-6-6-6-6-6---------------------------------------|
D|-4-4-4-4-4-4-4-4-4-4-4-4--6-6-6-6-6-6-6-6-6-6-6--6-6-6-6-6-6-6-6-6-6-6----------------|
A|-4-4-4-4-4-4-4-4-4-4-4-4--4-4-4-4-4-4-4-4-4-4-4--6-6-6-6-6-6-6-6-6-6-6----------------|
E|-2-2-2-2-2-2-2-2-2-2-2-2-------------------------4-4-4-4-4-4-4-4-4-4-4----------------|
e|--------------------------------------------------------------------------------------|
B|--------------------------------------------------------------------------------------|
G|-8-8-8-8-8-8-8-8-8-8-8-8--------------------------------------------------------------|
D|-8-8-8-8-8-8-8-8-8-8-8-8--6--6--1--3--------1--3--------------------------------------|
A|-6-6-6-6-6-6-6-6-6-6-6-6--6--6--------1--4--------1--4--------------------------------|
E|-----------------------------------4--4-----------------------------------------------|
Solo
e|----------------------------------------------------------------------9---9-9-----------------------------|
B|---6-------6---------------------------6h9-9-----------9-BEND-9---------11-----9h11-----------------------|
G|--------------8-6---6--6/8-6---6-6-----------6-6---------------------------------------8h10--8-8-86-6-6--|
D|----------------8--------------8--------------------------------------------------------------------------|
A|----------------------------------------------------------------------------------------------------------|
E|----------------------------------------------------------------------------------------------------------|
e|---------------9---9-9----------------------------------------------------------------|
B|--9-BEND-9---------11-----9h11--------------------------------------------------------|
G|--------------------------------------------8h10--8-8-86-6-6-------------------------|
D|--------------------------------------------------------------------------------------|
A|--------------------------------------------------------------------------------------|
E|--------------------------------------------------------------------------------------|
Post-solo
e|--------------------------------------------------------------------------------------|
B|--------------------------------------------------------------------------------------|
G|--------------8-------------------6---------------------------------------------------|
D|--------------8-------------------6---------------------------------------------------|
A|--------------6-------------------4---------------------------------------------------|
E|----------------------------------4---------------------------------------------------|
End bit
e|--------------------------------------------------------------------------------------|
B|--------------------------------------------------------------------------------------|
G|-----------------6-----------------6--------------------------------------------------|
D|-----------------6-----------------6--8---------------7-------------------------------|
A|-----------------4-----------------3--8---------------7-------------------------------|
E|--------------------------------------6---------------4-------------------------------|
End
e|--------------------------------------------------------------------------------------|
B|--------------------------------------------------------------------------------------|
G|-----------------6-----------------6------------------6-------------------------------|
D|-----------------6-----------------6--8---------------6-------------------------------|
A|-----------------4-----------------3--8---------------4-------------------------------|
E|--------------------------------------6-----------------------------------------------|
and thats it.this is my first tab but im dead certain its right.
play it along to it and youll see what i mean.




Ваше мнение



Капча