Grupo: New Found Glory
Titulo: Dressed To Kill
~ = Sustain / = Slide
Intro
Guitar 1
d|-----------------12-----10-9---x6-|
a|-------------10-----10------------|
f|--------9-9-----------------------|
c|----------------------------------|
g|----------------------------------|
D|----------------------------------|
Guitar 2
d|-------------------------------------------------------|-----------------|
a|-------------------------------------------------------|-----------------|
f|-------------------------------------------------------|-----------------|
c|--2---4--9-9-9-9-9-9--8-8-8-8-8-8-8--6-6-6-6-6-6-6--x2-|--2---4----9~~~--|
g|--2---4--9-9-9-9-9-9--8-8-8-8-8-8-8--6-6-6-6-6-6-6-----|--2---4----9~~~--|
D|--0---2--7-7-7-7-7-7--6-6-6-6-6-6-6--4-4-4-4-4-4-4-----|--0---2----7~~~--|
Verse
d|------------------------------------|----------------------------------------|
a|------------------------------------|----------------------------------------|
f|------------------------------------|----------------------------------------|
c|--9-9-9-/-8-8-8-/-6-6-6-/-4-4-4-----|-9-9-9-/-8-/-11/-8-/-6-/-9-/-6-/-4-4-4--|
g|--9-9-9-/-8-8-8-/-6-6-6-/-4-4-4--x2-|-9-9-9-/-8-/-11/-8-/-6-/-9-/-6-/-4-4-4--|
D|--7-7-7-/-6-6-6-/-4-4-4-/-2-2-2-----|-7-7-7-/-6-/-9-/-6-/-4-/-7-/-4-/-2-2-2--|

d|-------------------------------------------------------------|
a|-------------------------------------------------------------|
f|-------------------------------------------------------------|
c|--9-9-9-9-9-9--8-8-8-8-8-8-8--6-6-6-6-6-6-6--4-4-4-4-4-4-4---|
g|--9-9-9-9-9-9--8-8-8-8-8-8-8--6-6-6-6-6-6-6--4-4-4-4-4-4-4---|
D|--7-7-7-7-7-7--6-6-6-6-6-6-6--4-4-4-4-4-4-4--2-2-2-2-2-2-2---|
Pre Chorus
d|--------------------------------------------------------------|
a|--------------------------------------------------------------|
f|--------------------------------------------------------------|
c|--2--2--6--4---2--2--6--4---2--2--6--4---2--2--6-6-6--4-------|
g|--2--2--6--4---2--2--6--4---2--2--6--4---2--2--6-6-6--4-------|
D|--0--0--4--2---0--0--4--2---0--0--4--2---0--0--4-4-4--2-------|
Chorus 1
Guitar 1
d|----------------------------------------------------------|------|
a|----------------------------------------------------------|------|
f|----------------------------------------------------------|------|
c|--9-9-9-9-9-9--8-8-8-8-8-8-8--6-6-6-6-6-6-6--2----4-------|-9~~--|
g|--9-9-9-9-9-9--8-8-8-8-8-8-8--6-6-6-6-6-6-6--2----4---x4--|-9~~--|
D|--7-7-7-7-7-7--6-6-6-6-6-6-6--4-4-4-4-4-4-4--0----2-------|-7~~--|
Guitar 2
d|-------------------------------------------------------|---------12-----10-9-----|
a|-------------------------------------------------------|------10-----10-------X3-|
f|-------------------------------------------------------|-9-9---------------------|
c|--9-9-9-9-9-9--8-8-8-8-8-8-8--6-6-6-6-6-6-6--2----4----|-------------------------|
g|--9-9-9-9-9-9--8-8-8-8-8-8-8--6-6-6-6-6-6-6--2----4-x2-|-------------------------|
D|--7-7-7-7-7-7--6-6-6-6-6-6-6--4-4-4-4-4-4-4--0----2----|-------------------------|
Chorus 2
Guitar 1
d|----------------------------------------------------------|----------------------|
a|----------------------------------------------------------|----------------------|
f|----------------------------------------------------------|----------------------|
c|--9-9-9-9-9-9--8-8-8-8-8-8-8--6-6-6-6-6-6-6--2----4-------|-6~~~--4~~~--2~--4~~--|
g|--9-9-9-9-9-9--8-8-8-8-8-8-8--6-6-6-6-6-6-6--2----4---x4--|-6~~~--4~~~--2~--4~~--|
D|--7-7-7-7-7-7--6-6-6-6-6-6-6--4-4-4-4-4-4-4--0----2-------|-4~~~--2~~~--0~--2~~--|
Guitar 2
d|-------------------------------------------------------|---------12-----10-9-----|
a|-------------------------------------------------------|------10-----10-------X3-|
f|-------------------------------------------------------|-9-9---------------------|
c|--9-9-9-9-9-9--8-8-8-8-8-8-8--6-6-6-6-6-6-6--2----4----|-------------------------|
g|--9-9-9-9-9-9--8-8-8-8-8-8-8--6-6-6-6-6-6-6--2----4-x2-|-------------------------|
D|--7-7-7-7-7-7--6-6-6-6-6-6-6--4-4-4-4-4-4-4--0----2----|-------------------------|
Interlude
d|------------------------------------|-------------------------------------------------|
a|------------------------------------|-------------------------------------------------|
f|------------------------------------|-------------------------------------------------|
c|--9~~~~~-------222-2-2-222----------|--9~~~~~~-------222-2-2-222-2-2-222-2-2--2-2-2-2-|
g|--9~~~~~-------222-2-2-222-----x3---|--9~~~~~~-------222-2-2-222-2-2-222-2-2--2-2-2-2-|
D|--7~~~~~-------000-0-0-000----------|--7~~~~~~-------000-0-0-000-0-0-000-0-0--0-0-0-0-|

Intro
Verse
Pre Chorus
Chorus 1
Verse
Pre Chorus
Chorus 2
Interlude
Chorus 2




Ваше мнение



Капча