New Found Glory- Doubt Full Intro- Catlyst
Tabber:Muzikmannjd
(Standard Tuning)
----------------------------|
----------------------------|
----------------------------|
----------------------------|
-4h7-4h7--------------------|
----------4h7-4h7-----------|
----------------------------|
----------------------------|
----------------------------|
----------------------------|
-4h7-4h7p4p0----------------|
--------------4h7-4h7-------|
repeat that as many times as u need
Have Fun!
NFG ROX!! m/(*_*)m/




Ваше мнение



Капча