Tuning:Standard
INTRO
Guitar 1
e|-----------------------------------------------------------------------------|
B|-----------------------------------------------------------------------------|
G|--7-6------------------------------------------------------------------------|
D|--7-7------------------------------------------------------------------------|
A|--5-5------------------------------------------------------------------------|
E|-----------------------------------------------------------------------------|
(alternate between these chords)
Guitar 2 (x1)
e|-----------------------------------------------------------------------|
B|-----------------------------------------------------------------------|
G|---77777777777777777777-4444444444-------------------------------------|
D|---77777777777777777777-4444444444-5555555555--------------------------|
A|---55555555555555555555-2222222222-5555555555--------------------------|
E|-----------------------------------3333333333--------------------------|
Verse (x2)
Palm mute
e|----------------------------------------------------------------------------|
B|----------------------------------------------------------------------------|
G|---77-777-77-777-44-444-----------------------------------------------------|
D|---77-777-77-777-44-444-55-555----------------------------------------------|
A|---55-555-55-555-22-222-55-555----------------------------------------------|
E|------------------------33-333----------------------------------------------|
Pre-chorus
e|----------------------------------------------------------------------------|
B|----------------------------------------------------------------------------|
G|-----7~~~~~~----------------------------------------------------------------|
D|-----7~~~~~~----------------------------------------------------------------|
A|-----5~~~~~~----------------------------------------------------------------|
E|----------------------------------------------------------------------------|
Chorus (x2)
Strumn patternnot entirely correct.
e|-----------------------------------------------------------------------|
B|-----------------------------------------------------------------------|
G|---77777777766666666666-4444444444-------------------------------------|
D|---77777777777777777777-4444444444-55xx55xx----------------------------|
A|---55555555555555555555-2222222222-55xx55xx----------------------------|
E|-----------------------------------33xx33xx----------------------------|
Repeat verse and chorus
Bridge: nothin mich really but some1 else figure it out!
Interlude (when guitar in background and jordan just sings)
(x1)
e|-----------------------------------------------------------------------|
B|-----------------------------------------------------------------------|
G|---77777777776666666666-4444444444-------------------------------------|
D|---77777777777777777777-4444444444-55xx55xx----------------------------|
A|---55555555555555555555-2222222222-55xx55xx----------------------------|
E|-----------------------------------33xx33xx----------------------------|
Repeat chorus (x2)
Ending
e|---------------------------------------------------------------------------|
B|---------------------------------------------------------------------------|
G|---------------------------------------------------------------------------|
D|--55xx55xx55xx5~~~~~~------------------------------------------------------|
A|--55xx55xx55xx5~~~~~~------------------------------------------------------|
E|--33xx33xx33xx3~~~~~~~-----------------------------------------------------|
That is basically it. Probably a few mistakes like on strum patter but just listen 2 da cd!




Ваше мнение



Капча