Artist: New Found Glory
Song: Black & Blue
Tabbed By: Budah124

(~means let ring)

Intro:

G:---------------------------------
D:---------------------------------
A:---------------------------------
E:---0-0---5---9-9---7---0-0---5---9---7

G:------------------------------------------------------------------
D:------------------------------------------------------------------
A:--------------------------------------------------------------------
E:---0-0---5---9-9---7---0-0---5----9---7---0-0-0-0---5-5-5-5--7

Verse:

G:-----------------------------
D:-----------------------------
A:-----------------------------
E:--1~---5~---7~---9~---7~------

Pre-Chorus

G:------------------------------------------------------------
D:------------------------------------------------------------
A:------------------------------------------------------------
E:--0-0-0-0---5-5-5-5---9-9-9-9---5-5-5-5---0-0-0-0---9---7~-

Chorus:

G:-----------------------------
D:-----------------------------
A:-----------------------------
E:---9-9---7---0-0---5---9-----

G:-----------------------------------------------------------------
D:---------------------------------------------------------------
A:----------------------------------------------------------------
E:---0-0---5---9-9---7---0-0---5---9---7---0-0-0-0---5-5-5-5---7---

Outro:

Play the part before the stars 7 times, then on the eighth add the part after
the stars

G:------------------*----
D:------------------*----
A:------------------*----
E:---0~---5~---7~---*---0~

End

I'm not positive if this is all totally right, but it sounds right to me. I
didn't put the exact rythm on this tab, but if you play along to the cd you
should have no problem. If you have any comments or suggestions on this tab,
E-mail me at [email protected]

thanx




Ваше мнение



Капча