There are two guitars in this song so if i put a (1) thats guitar number 1 part if a put (2) thats the second guitar
e:----|--------|----|--------|----|--------|-----------------------------------
b:----|-7-7-7-7|----|-7-7-7-7|----|-7-7-7-7|-----------------------------------
g:-4-4|-4-4-4-4|----|-4-4-4-4|----|-4-4-4-4|-----------------------------------
d:-4-4|--------|-4-4|--------|-2-2|--------|-6-6-4-4--------------------------- (4x)
a:-2-2|--------|-4-4|--------|-2-2|--------|-6-6-4-4---------------------------
e:----|--------|-2-2|--------|-0-0|--------|-4-4-2-2---------------------------
(1)| (2) | (1)| (2) | (1)| (2) | (1)
e:---------------------------------------------------------------------
b:---------------------------------------------------------------------
g:---------------------------------------------------------------------
d:-2-2-2-2-2-6-6-6-4-4-4----------------------------------------------- (4x)
a:-2-2-2-2-2-6-6-6-4-4-4-----------------------------------------------
e:-0-0-0-0-0-4-4-4-2-2-2-----------------------------------------------
GUITAR 1
e:---------------------------------------------------------------------
b:---------------------------------------------------------------------
g:-4-4----11-----------------------------------------------------------
d:-4-4--9----9--------------------------------------------------------- (4x)
a:-2-2----------2-2-4-4------------------------------------------------
e:--------------4-4-2-2------------------------------------------------
GUITAR 2 play at same time as guitar 1
e:----|--------|----|--------|----|--------|-----------------------------------
b:----|-7-7-7-7|----|-7-7-7-7|----|-7-7-7-7|-----------------------------------
g:-4-4|-4-4-4-4|----|-4-4-4-4|----|-4-4-4-4|-----------------------------------
d:-4-4|--------|-4-4|--------|-2-2|--------|-6-6-4-4--------------------------- (4x)
a:-2-2|--------|-4-4|--------|-2-2|--------|-6-6-4-4---------------------------
e:----|--------|-2-2|--------|-0-0|--------|-4-4-2-2---------------------------
(1)| (2) | (1)| (2) | (1)| (2) | (1)
e:---------------------------------------------------------------------
b:---------------------------------------------------------------------
g:---------------------------------------------------------------------
d:-2-2-2-2-2-6-6-6-4-4-4----------------------------------------------- (4x)
a:-2-2-2-2-2-6-6-6-4-4-4-----------------------------------------------
e:-0-0-0-0-0-4-4-4-2-2-2-----------------------------------------------
GUITAR 1
e:---------------------------------------------------------------------
b:---------------------------------------------------------------------
g:-4-4----11-----------------------------------------------------------
d:-4-4--9----9--------------------------------------------------------- (4x)
a:-2-2----------2-2-4-4------------------------------------------------
e:--------------4-4-2-2------------------------------------------------
GUITAR 2 play at same time as guitar 1
e:---------------------------------------------------------------------
b:---------------------------------------------------------------------
g:-4-4-4-4-4-4---------------------------------------------------------
d:-4-4-4-4-4-4-6-6-4-4-2-2-6-4-2--2-2--2-2--2-2--2-2------------------- (4x)
a:-2-2-2-2-2-2-6-6-4-4-2-2-6-4-2--2-2--2-2--2-2--2-2-------------------
e:-------------4-4-2-2-0-0-4-2-0--0-0--0-0--0-0--0-0-------------------
CHORUS:GUITAR 1
e:---------------------------------------------------------
b:---------------------------------------------------------
g:-4-4-----------------------------------------------------
d:-4-4-6-6-6-4-4-2-2-2------------------------------------- x8
a:-2-2-6-6-6-4-4-2-2-2-------------------------------------
e:-----4-4-4-2-2-0-0-0-------------------------------------
guitar one play after chorus
e:---------------------------------------------------------------------
b:---------------------------------------------------------------------
g:---------------------------------------------------------------------
d:-2-2-2-2-2-6-6-6-4-4-4----------------------------------------------- (4x)
a:-2-2-2-2-2-6-6-6-4-4-4-----------------------------------------------
e:-0-0-0-0-0-4-4-4-2-2-2-----------------------------------------------
GUITAR 1
e:---------------------------------------------------------------------
b:---------------------------------------------------------------------
g:-4-4----11-----------------------------------------------------------
d:-4-4--9----9--------------------------------------------------------- (4x)
a:-2-2----------2-2-4-4------------------------------------------------
e:--------------4-4-2-2------------------------------------------------
GUITAR 2 play at same time as guitar 1
e:---------------------------------------------------------------------
b:---------------------------------------------------------------------
g:-4-4-4-4-4-4---------------------------------------------------------
d:-4-4-4-4-4-4-6-6-4-4-2-2-6-4-2--2-2--2-2--2-2--2-2------------------- (4x)
a:-2-2-2-2-2-2-6-6-4-4-2-2-6-4-2--2-2--2-2--2-2--2-2-------------------
e:-------------4-4-2-2-0-0-4-2-0--0-0--0-0--0-0--0-0-------------------
CHORUS:GUITAR 1
e:---------------------------------------------------------
b:---------------------------------------------------------
g:-4-4-----------------------------------------------------
d:-4-4-6-6-6-4-4-2-2-2------------------------------------- x8
a:-2-2-6-6-6-4-4-2-2-2-------------------------------------
e:-----4-4-4-2-2-0-0-0-------------------------------------
guitar one play after chorus




Ваше мнение



Капча