Intro x 6
e|---------------------------------------------------------------------------|
B|---------------------------------------------------------------------------|
G|-5-5-5-5-5-5-5-5/10-10-10-10-10-10-10-10-----------------------------------|
D|---------------------------------------------------------------------------|
A|-3-3-3-3-3-3-3-3/-8--8--8--8--8--8--8--8-----------------------------------|
E|---------------------------------------------------------------------------|

Verse (part 1) x 2
e|---------------------------------------------------------------------------|
B|---------------------------------------------------------------------------|
G|---------------------------------------------------------------------------|
D|-5-5-5-5-5-5-5-5-3-3-3-3-3-3-3-3-------------------------------------------|
A|-5-5-5-5-5-5-5-5-3-3-3-3-3-3-3-3-------------------------------------------|
E|-3-3-3-3-3-3-3-3-1-1-1-1-1-1-1-1-------------------------------------------|

(part 2) x 6
e|---------------------------------------------------------------------------|
B|---------------------------------------------------------------------------|
G|-5-5-5-5-5-5-5-5/10-10-10-10-10-10-10-10-----------------------------------|
D|-5-5-5-5-5-5-5-5/10-10-10-10-10-10-10-10-----------------------------------|
A|-3-3-3-3-3-3-3-3/-8--8--8--8--8--8--8--8-----------------------------------|
E|---------------------------------------------------------------------------|

Verse (part 1) x 2

Chorus x 2
e|---------------------------------------------------------------------------|
B|---------------------------------------------------------------------------|
G|-----5---5-------------------5---5------------------7----------------------|
D|-----5---5-2---2-3---3-3---3-5---5-2---2-3---3-3333-7----------------------|
A|-----3---3-2---2-3---3-3---3-3---3-2---2-3---3-3333-5----------------------|
E|-----------0---0-1---1-1---1-------0---0-1---1-1111------------------------|
****
Bridge
e|---------------------------------------------------------------------------|
B|---------------------------------------------------------------------------|
G|--------------------------------------------------5~-----------------------|
D|---2-3---2-3---2-3-3-2-3---2-3---2-3---2-3-3-2-3--5~-----------------------|
A|-3-----3-----3-----------3-----3-----3------------3~-----------------------|
E|---------------------------------------------------------------------------|

Intro x 4
Verse (part 2) x 2
Chorus x 2
Bridge
Intro x 4
Verse x 8
Verse (part 2) x 2
Chorus




Ваше мнение



Капча