New Found Glory - Back That Ass Up
Tabbed By: Mark Welch
EMail: [email protected]
Tuning: Standard (E A D G B E)
Listen to the song to get the rhythem. Great song.
Also whilst u play u shud try and back that ass up! Have fun!
E|-------------------------------------||
B|-------------------------------------||
G|--7--7--5--3--3--5-------------------|| x2
D|--7--7--5--3--3--5-------------------||
A|--5--5--3--1--1--3-------------------||
E|-------------------------------------||
E|-------------------------------------||
B|-------------------------------------||
G|--------------------3--3--3--5--5--5-|| Back to start of tab above
D|--5--5--5--7--7--7--3--3--3--5--5--5-||
A|--5--5--5--7--7--7--1--1--1--3--3--3-||
E|--3--3--3--5--5--5-------------------||


Ваше мнение



Капча