New Found Glory - At least I'm known for something
Catalyst
. = palm mute
~ = let ring
Intro pt 1
(guitar one)
E|----------------------------------------------------|
B|----------------------------------------------------|
G|----------------------------------------------------|
D|--2222-2-2-2222-2-----2222-2-2-2222-2---------------|
A|--2222-2-2-2222-2-----2222-2-2-2222-2---------------|
E|--0000-0-0-0000-0-----0000-0-0-0000-0---------------|
.... .... .... ....
(guitar two)
E|----------------------------------------------------|
B|----------------------------------------------------|
G|-----------------6/7/4----------------6/7/9---------|
D|-----------------x/x/x----------------x/x/x---------|
A|-----------------4/5/2----------------4/5/7---------|
E|----------------------------------------------------|
Intro pt 2
(guitar one)
E|----------------------------------------------------|
B|----------------------------------------------------|
G|----------------------------------------------------|
D|--2222-2-2-2222-2--------4-44-4--7~-----------------|
A|--2222-2-2-2222-2--------4-44-4--7~-----------------|
E|--0000-0-0-0000-0--------2-22-2--5~-----------------|
.... .... .. .
(guitar two)
E|----------------------------------------------------|
B|----------------------------------------------------|
G|-----------------6/7/9------------------------------|
D|-----------------x/x/x---4-44-4--7~-----------------|
A|-----------------4/5/7---4-44-4--7~-----------------|
E|-------------------------2-22-2--5~-----------------|
.. .
Verse: Both Guitars x2
E|-----------------------------|----------------------|
B|-----------------------------|----------------------|
G|-----------------------------|----------------------|
D|--2222---2222---2222---2222--|--2~------------------|
A|--2222---2222---2222---2222--|--2~------------------|
E|--0000---0000---0000---0000--|--0~------------------|
.... .... .... ....
Pre-Chorus both guitars
E|----------------------------------------------------|
B|----------------------------------------------------|
G|----------------------------------------------------|
D|---2----6----7-----9----2----6-7~-------------------|
A|---2----6----7-----9----2----6-7~-------------------|
E|-000--444--555---777--000--444-5~-------------------|
.. .. .. .. .. ..
Chorus: x2
(guitar one)
E|----------------------------------------------------|
B|----------------------------------------------------|
G|----------------------------------------------------|
D|--2222-2-2-2222-2-----2222-2-2-2222-2---------------|
A|--2222-2-2-2222-2-----2222-2-2-2222-2---------------|
E|--0000-0-0-0000-0-----0000-0-0-0000-0---------------|
.... .... .... ....
(guitar two)
E|----------------------------------------------------|
B|----------------------------------------------------|
G|-----------------6/7/4----------------6/7/9---------|
D|-----------------x/x/x----------------x/x/x---------|
A|-----------------4/5/2----------------4/5/7---------|
E|----------------------------------------------------|
(guitar one)
E|----------------------------------------------------|
B|----------------------------------------------------|
G|----------------------------------------------------|
D|--2222-2-2-2222-2--------4-44-4--7~-----------------|
A|--2222-2-2-2222-2--------4-44-4--7~-----------------|
E|--0000-0-0-0000-0--------2-22-2--5~-----------------|
.... .... .. .
(guitar two)
E|----------------------------------------------------|
B|----------------------------------------------------|
G|-----------------6/7/9------------------------------|
D|-----------------x/x/x---4-44-4--7~-----------------|
A|-----------------4/5/7---4-44-4--7~-----------------|
E|-------------------------2-22-2--5~-----------------|
.. .
Verse: Both Guitars x2
E|-----------------------------|----------------------|
B|-----------------------------|----------------------|
G|-----------------------------|----------------------|
D|--2222---2222---2222---2222--|--2~------------------|
A|--2222---2222---2222---2222--|--2~------------------|
E|--0000---0000---0000---0000--|--0~------------------|
.... .... .... ....
Pre-Chorus both guitars
E|----------------------------------------------------|
B|----------------------------------------------------|
G|----------------------------------------------------|
D|---2----6----7-----9----2----6-7~-------------------|
A|---2----6----7-----9----2----6-7~-------------------|
E|-000--444--555---777--000--444-5~-------------------|
.. .. .. .. .. ..

Chorus: x2
(guitar one)
E|----------------------------------------------------|
B|----------------------------------------------------|
G|----------------------------------------------------|
D|--2222-2-2-2222-2-----2222-2-2-2222-2---------------|
A|--2222-2-2-2222-2-----2222-2-2-2222-2---------------|
E|--0000-0-0-0000-0-----0000-0-0-0000-0---------------|
.... .... .... ....
(guitar two)
E|----------------------------------------------------|
B|----------------------------------------------------|
G|-----------------6/7/4----------------6/7/9---------|
D|-----------------x/x/x----------------x/x/x---------|
A|-----------------4/5/2----------------4/5/7---------|
E|----------------------------------------------------|
(guitar one)
E|----------------------------------------------------|
B|----------------------------------------------------|
G|----------------------------------------------------|
D|--2222-2-2-2222-2--------4-44-4--7~-----------------|
A|--2222-2-2-2222-2--------4-44-4--7~-----------------|
E|--0000-0-0-0000-0--------2-22-2--5~-----------------|
.... .... .. .
(guitar two)
E|----------------------------------------------------|
B|----------------------------------------------------|
G|-----------------6/7/9------------------------------|
D|-----------------x/x/x---4-44-4--7~-----------------|
A|-----------------4/5/7---4-44-4--7~-----------------|
E|-------------------------2-22-2--5~-----------------|
.. .

interlude: just play this a lot you can work the rhythm out for
yourself there were 2 other chords in there I didn't know, sorry.
E|----------------------------------------------------|
B|----------------------------------------------------|
G|----------------------------------------------------|
D|-222222222------------------------------------------|
A|-222222222------------------------------------------|
E|-000000000------------------------------------------|
.........
Pre-Chorus: (guitar one) (clean)
E|----------------------------------------------------|
B|----------------------------------------------------|
G|----------------------------------------------------|
D|-222--666--777---999--222--666-7~-------------------|
A|-222--666--777---999--222--666-7~-------------------|
E|-000--444--555---777--000--444-5~-------------------|

Chorus: x2
(guitar one)
E|----------------------------------------------------|
B|----------------------------------------------------|
G|----------------------------------------------------|
D|--2222-2-2-2222-2-----2222-2-2-2222-2---------------|
A|--2222-2-2-2222-2-----2222-2-2-2222-2---------------|
E|--0000-0-0-0000-0-----0000-0-0-0000-0---------------|
.... .... .... ....
(guitar two)
E|----------------------------------------------------|
B|----------------------------------------------------|
G|-----------------6/7/4----------------6/7/9---------|
D|-----------------x/x/x----------------x/x/x---------|
A|-----------------4/5/2----------------4/5/7---------|
E|----------------------------------------------------|
(guitar one)
E|----------------------------------------------------|
B|----------------------------------------------------|
G|----------------------------------------------------|
D|--2222-2-2-2222-2--------4-44-4--7~-----------------|
A|--2222-2-2-2222-2--------4-44-4--7~-----------------|
E|--0000-0-0-0000-0--------2-22-2--5~-----------------|
.... .... .. .
(guitar two)
E|----------------------------------------------------|
B|----------------------------------------------------|
G|-----------------6/7/9------------------------------|
D|-----------------x/x/x---4-44-4--77777--------------|
A|-----------------4/5/7---4-44-4--77777--------------|
E|-------------------------2-22-2--55555--------------|
.. . .....
outro: x3 (both guitars)
E|----------------------------------------------------|
B|----------------------------------------------------|
G|----------------------------------------------------|
D|--22-2-2-22-----------------------------------------|
A|--22-2-2-22-----------------------------------------|
E|--00-0-0-00-----------------------------------------|
E|----------------------------------------------------|
B|----------------------------------------------------|
G|----------------------------------------------------|
D|--4~----7~------------------------------------------|
A|--4~----7~------------------------------------------|
E|--2~----5~------------------------------------------|
There you have it. Any Q's or corrections plz e-mail me at [email protected]




Ваше мнение



Капча