this is my first tab...so dont get mad if its screwed up

*intro & chorus*
e-------------------------------------------------------------------------------b-------------------------------------------------------------------------------g--------4-44---4--6-66---6--2-22---2--------4-44---4--6-66---6--2-22---2-------d-2-2----4-44-x-4--6-66-x-6--2-22-x-2-2-2----4-44-x-4--6-66-x-6--2-22-x-2--2-22-a-2-2-xx-2-22-x-2--4-44-x-4--0-00-x-0-2-2-xx-2-22-x-2--4-44-x-4--0-00-x-0--2-22-e-0-0-xx------------------------------0-0-xx-------------------------------0-00-
(hold out the e5 a little into the verse)

*verse*
e-------------------------------------------------------------------------------
b-------------------------------------------------------------------------------
g------------------------------44--4-66--6-2---2--(theres alot of palm muting---
d-2---2-(hold out chord--2---2-44-x4-66-x6-2-x-2--here,just play around with it-
a-2-x-2----& end in -----2-x-2-22-x2-44-x4-0-x-0-------to figure it out)--------
e-0-x-0----palm mute)----0-x-0--------------------------------------------------
^(play 2x)^

play *intro & chorus* riff 2x
play *verse* riff
play *intro & chorus* riff 2x

*bridge*
e-------------------------------------------------------------------------------
b-------------------------------------------------------------------------------
g-------4-4-4-6-6-6-2-2-2-------4-4-6-6--2----4---------------------------------
d-2-2-2-4-4-4-6-6-6-2-2-2---2-2-4-4-6-6--2-xx-4-xx------------------------------
a-2-2-2-2-2-2-4-4-4-0-0-0---2-2-2-2-4-4--0-xx-2-xx------------------------------
e-0-0-0---------------------0-0-------------------------------------------------

play *intro & chorus* riff 6x

end on
d--2---2-----------------------------
a--2-x-2-(hold out till end of song)-
e--0-x-0-----------------------------

hope u enjoi..........
for any corrections email me at [email protected]




Ваше мнение



Капча