e|--------------------------------------------|
B|--------------------------------------------|
G|-------------4-4-4-------6-6-6-------2-2-2--|
D|-2-2-2-------4-4-4-------6-6-6-------2-2-2--|
A|-2-2-2-------2-2-2-------4-4-4-------0-0-0--|
E|-0-0-0--2-4---------2-4---------2-4---------|

Verse:
e|---------------------|
B|---------------------|
G|-9-----6-6-6--2-2-2--|
D|-9-----6-6-6--2-2-2--|
A|-7-----4-4-4--0-0-0--|
E|---------------------|

Pre Chorus:
e|-----------------------------------------------------------|
B|-----------------------------------------------------------|
G|-----------------------------------------------------------|
D|--2-2-2-2--6--4-4-4-4--9--7-7-7-7-11--9-9-9-9--7-7-7-7--7--|
A|--2-2-2-2--6--4-4-4-4--7--7-7-7-7--9--7-7-7-7--5-5-5-5--5--|
E|--0-0-0-0--4--2-2-2-2--7--5-5-5-5--9--7-7-7-7--5-5-5-5--5--|

Chorus:
e|--------------------------------------------|
B|--------------------------------------------|
G|-------------4-4-4-------6-6-6-------2-2-2--|
D|-2-2-2-------4-4-4-------6-6-6-------2-2-2--|
A|-2-2-2-------2-2-2-------4-4-4-------0-0-0--|
E|-0-0-0--2-4---------2-4---------2-4---------|

Bridge:
e|----------------------------|
B|----------------------------|
G|-6-----6-----6-----6-----4--|
D|-6--7--6--7--6--7--6--7--4--|
A|-4--7--4--7--4--7--4--7--2--|
E|----5-----5-----5-----5-----|




Ваше мнение



Капча