Verse 1
E|------------------------------------------------------------|
A|------------------------------------------------------------|
D|-777777-----------------------------------------------------|
G|-777777-888888----------------------------------------------|
B|-555555-888888----------------------------------------------|
E|--------666666----------------------------------------------|
Verse Outro
E|------------------------------------------------------------|
A|------------------------------------------------------------|
D|------------------------------------------------------------|
G|--7-8-7-5-4-------------------------------------------------|
B|--7-8-7-5-4-------------------------------------------------|
E|--5-6-5-3-2-------------------------------------------------|
Intro
E|------------------------------------------------------------|
A|------------------------------------------------------------|
D|-7-7--------------------------------------------------------|
G|-7-7--8-777-888-555-----------------------------------------|
B|-5-5--8-777-888-555-----------------------------------------|
E|------6p555-666-333-----------------------------------------|
Verse 2
E|------------------------------------------------------------|
A|------------------------------------------------------------|
D|-1010-777-88------------------------------------------------|
G|-1010-777-88--888-------------------------------------------|
B|-1212-555-66--888-------------------------------------------|
E|--------------666-------------------------------------------|
Chorus
(haven't worked out yet, sorry guys)
Bridge 1 (Brackets only on 1st time)
E|(---------)-------------------------------------------------|
A|(---------)-------------------------------------------------|
D|(-12-11-9-)-7777-67999-79---1212-1212-1212-1212-------------|
G|(-12-11-9-)-7777-67999-79---1212-1212-1212-1212-------------|
B|(-10-9--7-)-5555-45777-57---1010-1010-1010-1010-------------|
E|(---------)-------------------------------------------------|
Bridge 2
E|------------------------------------------------|
A|------------------------------------------------|
D|-7777-67999-79---1212-1111-77---99--------------|
G|-7777-67999-79---1212-1111-77---99--------------|
B|-5555-45777-57---1010-9-9--55---77--------------|
E|------------------------------------------------|
ORDER:
Verse 1 x4
Verse Outro x1
Intro x4
Verse 1 x4
Verse 2 x4
Verse Outro x1
Chorus x4
Verse 1 x4
Verse 2 x4
Verse Outro x1
Chorus x4
Bridge 1 x3
Bridge 2 x1
Verse Outro x3
Chorus x4
Intro x4
Verse 1 x2




Ваше мнение



Капча