New Found Glory - 3rd And Long
Submitted By: Don Edmund Tan
EMail: [email protected]
i just want 2 correct anthony's tab coz i think something's wrong with
his bridge
Intro: Guitar 1
e|---------------------------------------------------------------------------|
B|---------------------------------------------------------------------------|
G|-7~------6~------7~--------------------------------------------------------|
D|------------------------7~-------------------------------------------------|
A|---------------------------------------------------------------------------|
E|---------------------------------------------------------------------------|
Guitar 2
e|---------------------------------------------------------------------------|
B|---------------------------------------------------------------------------|
G|-7------6--------7---------------------------------------------------------|
D|-x------x--------x-------7-------------------------------------------------|
A|-5------4--------5-------7-------------------------------------------------|
E|-----------------7-------5-------------------------------------------------|
Verse: Guitar 1 (i'm not so sure with the dead strings but i think it's right)
e|---------------------------------------------------------------------------|
B|---------------------------------------------------------------------------|
G|-----7-7------7-7------6-6-----6-6------7-7-----7-7------------------------|
D|-----x-x------x-x------x-x-----x-x------x-x-----x-x-------7-7-----7-7------|
A|-5-5-5-5--5-5-5-5--4-4-4-4-4-4-4-4--5-5-5-5-5-5-5-5-------7-7-----7-7------|
E|------------------------------------7-7-7-7-7-7-7-7---5-5-5-5-5-5-5-5------|
pm . . . . . . . . . . . . . . . .
Guitar 2
e|---------------------------------------------------------------------------|
B|---------------------------------------------------------------------------|
G|---------------------------------------------------------------------------|
D|-----4--------7--------4-------7--------4-----555-444-----7-7-----7-7------|
A|-4-5---5--4-5--5---4-5---5-4-5---5--4-5---5-4-------------7-7-----7-7------|
E|------------------------------------------------------5-5-5-5-5-5-5-5------|
pm . . . . . . . . . . ... ... . . . .
Bridge:
Guitar 1
e|--------------------------------------------| |-------------------------------|
B|--------------------------------------------| |-------------------------------|
G|--------------------------------------------| |-------------------------------|
D|--------------------5-4---------------------| |-7-7-7h9-9---------------------|
A|-------4-5-4--0-0-0-------------4-5-4-0-00-7| |-------------------------------|
E|-3-3-3--------------------3-3-3-------------| |-------------------------------|
Guitar 2
e|---------------------------------------------------------------------------|
B|---------------------------------------------------------------------------|
G|---------------------------------------------------------------------------|
D|-5-5-5-5-5-5--7-7-7-7-7---5-5-5-5-5-5-7777-7-------------------------------|
A|-5-5-5-5-5-5--7-7-7-7-7---5-5-5-5-5-5-7777-7-------------------------------|
E|-3-3-3-3-3-3--5-5-5-5-5---3-3-3-3-3-3-5555-5-------------------------------|
pm ....
Both guitars
e|---------------------------------------------------------------------------|
B|---------------------------------------------------------------------------|
G|-7-------------------------------------------------------------------------|
D|-7-7--55555555555----------------------------------------------------------|
A|-5-7--55555555555----------------------------------------------------------|
E|---5--33333333333----------------------------------------------------------|
Guitar 1
e|---------------------------------------------------------------------------|
B|---------------------------------------------------------------------------|
G|---------------------------------------------------------------------------|
D|-4h5-7--------------5---4h5-7--------------5/-9-/-7------------------------|
A|-------4h5-7--------5---------4h5-7--------5/-9-/-7------------------------|
E|--------------3-3-3-3----------------3-3-3-3/-7-/-5------------------------|
pm . . . . . . .
Guitar 2
e|---------------------------------------------------------------------------|
B|---------------------------------------------------------------------------|
G|-7----------------------7--------------------------------------------------|
D|-7-----7------5-5-5-5---7-----7------5-5-5-5/-9-/-7------------------------|
A|-5-----7------5-5-5-5---5-----7------5-5-5-5/-9-/-7------------------------|
E|-------5------3-3-3-3---------5------3-3-3-3/-7-/-5------------------------|
pm . . . . . . .
:I would like to thank Anthony Imbruglia for helping me tab out correctly
this song.
For comments please E-mail me at [email protected]
===========
3RD AND LONG - New Found Glory
By: Anthony Imburgia ([email protected])
Intro: Guitar 1
e|---------------------------------------------------------------------------|
B|---------------------------------------------------------------------------|
G|-7~------6~------7~------6~------------------------------------------------|
D|---------------------------------------------------------------------------|
A|---------------------------------------------------------------------------|
E|---------------------------------------------------------------------------|
Guitar 2
e|---------------------------------------------------------------------------|
B|---------------------------------------------------------------------------|
G|-7------6--------7---------------------------------------------------------|
D|-4------7--------x-------7-------------------------------------------------|
A|-5------4--------5-------7-------------------------------------------------|
E|-----------------7-------5-------------------------------------------------|
Verse: Guitar 1
e|---------------------------------------------------------------------------|
B|---------------------------------------------------------------------------|
G|-----7-7------7-7------6-6-----6-6------7-7-----7-7------------------------|
D|-----4-4------4-4------7-7-----7-7------x-x-----x-x-------7-7-----7-7------|
A|-5-5-5-5--5-5-5-5--4-4-4-4-4-4-4-4--5-5-5-5-5-5-5-5-------7-7-----7-7------|
E|------------------------------------7-7-7-7-7-7-7-7---5-5-5-5-5-5-5-5------|
pm . . . . . . . . . . . . . . . .
Guitar 2
e|---------------------------------------------------------------------------|
B|---------------------------------------------------------------------------|
G|---------------------------------------------------------------------------|
D|-----4--------7--------4-------7--------4-----555-444-7-7-7-7-7-7-7-7------|
A|-4-5---5--4-5--5---4-5---5-4-5---5--4-5---5-4---------7-7-7-7-7-7-7-7------|
E|------------------------------------------------------5-5-5-5-5-5-5-5------|
pm . . . . . . . . . . ... ... . . . .
Guitar 1
e|---------------------------------------------------------------------------|
B|---------------------------------------------------------------------------|
G|---------------------------------------------------------------------------|
D|--------------------5-4----------------------------------------------------|
A|-------4-5-4--0-0-0-------------4-5-4-0-00-5-------------------------------|
E|-3-3-3--------------------3-3-3--------------------------------------------|
Guitar 2
e|---------------------------------------------------------------------------|
B|---------------------------------------------------------------------------|
G|---------------------------------------------------------------------------|
D|-5-5-5-5-5-5--7-7-7-7-7---5-5-5-5-5-5-7777-7-------------------------------|
A|-5-5-5-5-5-5--7-7-7-7-7---5-5-5-5-5-5-7777-7-------------------------------|
E|-3-3-3-3-3-3--5-5-5-5-5---3-3-3-3-3-3-5555-5-------------------------------|
pm ....
Both guitars
e|---------------------------------------------------------------------------|
B|---------------------------------------------------------------------------|
G|-7-------------------------------------------------------------------------|
D|-7-7--55555555555----------------------------------------------------------|
A|-5-7--55555555555----------------------------------------------------------|
E|---5--33333333333----------------------------------------------------------|
Guitar 1
e|---------------------------------------------------------------------------|
B|---------------------------------------------------------------------------|
G|---------------------------------------------------------------------------|
D|-4h5-7--------5-5-5-5---4h5-7--------5-5-5-5/-9-/-7------------------------|
A|-------4h5-7--5-5-5-5---------4h5-7--5-5-5-5/-9-/-7------------------------|
E|--------------3-3-3-3----------------3-3-3-3/-7-/-5------------------------|
pm . . . . . . .
Guitar 2
e|---------------------------------------------------------------------------|
B|---------------------------------------------------------------------------|
G|-7----------------------7--------------------------------------------------|
D|-7-----7------5-5-5-5---7-----7------5-5-5-5/-9-/-7------------------------|
A|-5-----7------5-5-5-5---5-----7------5-5-5-5/-9-/-7------------------------|
E|-------5------3-3-3-3---------5------3-3-3-3/-7-/-5------------------------|
pm . . . . . . .




Ваше мнение



Капча