Date: Wed, 29 Nov 1995 00:14:30 +0100
From: [email protected] (KAKR)
Subject: Subject: CRD/TAB: Take on me by Aha
Date: Sun, 28 Jan 1996 24:00:00 +0100
From: [email protected] (Karsten Ulrich Krambs)
Subject: CRD/TAB: Take on me by Aha
I looked for this song, and found it on a OLGA site
But only in a draft version, with no chords and lyrics.
I dont know the original auother of this song, but thanks
For the inspiration.
TAKE ON ME
================
By Aha
Intro: (Played on synth) Played four times.
E|---------------------------7--------------------------------|
B|-7-7-------------9-9-10-11---11-11-11------7 7 7 ----7------|
G|-----7-----9-9-9----------------------9-7--------9-9--9-----|
D|-------9-9--------------------------------------------------|
A|------------------------------------------------------------|
E|------------------------------------------------------------|
Chords in intro :
/Hm/E/A/D/ x4
Verse:
/Hm/E/A/D/
/Hm/E/F#m/D/
A E F#m
Take on me ( Take on me )
A E F#m
Take on me ( Take on me )
A E F#m A
I'll be your's in a day or two
Thats all I can do without the lyrics, if you
Have it, please mail it to and i'll put it all
Together.
[email protected]
[ Old version ]
==============================================================
Subject: TAB: Take on Me - A-Ha (really)
Here's a fun one for you to play around with. One of those songs
Everyone loves but will never admit it.
Intro:
E|-----------------------------------------------------------------|
B|-7-7-------------9-9-10-10-10-10-10-----------------------------|
G|-----7-----9-9-9---------------------9----11-11-11-9-9-11-9-----|
D|-------9-9-----------------------------12------------------------|
A|-----------------------------------------------------------------|
E|-----------------------------------------------------------------|
E|-----------------------------------------------------------------|
B|-7-7-------------9-9-10-10-10-10-10----------------------------|
G|-----7-----9-9-9---------------------9----11-11-11-9------------|
D|-------9-9-----------------------------12------------------------|
A|-----------------------------------------------------------------|
E|-----------------------------------------------------------------|
Verse is: G/A/D/G G/A/D/G G/A/Bm/A
I'm not really sure of the chorus. It may be because I'm playing the
Verse in the wrong key because I have the chords wrong for the chorus.
For the chorus, you can get away with E/G#/A
I'd say the whole thing could use some work, so feel free to chip in.
And while I'm at it, I'd love to trade SUPERCHUNK tab with anyone.
=======================================================================
Date: Tue, 11 Jun 1996 01:30:50 +0200 (METDST)
From: "matteo.rocco"
TITLE: Take on me
ALBUM: Hunting high and low
GROUP: a-ha
FROM: Matteo Rocco
ADDRESS: Via San Rocco 14/10
33100 Udine
Italy
E-MAIL: [email protected]
TAKE ON ME (album version)
----------
F#4/5
B-=20
B- / E / A / D C#- / B- / E / A / D C#- / B- / E / B- / E
Pa ppa paa pa
B- E A D C#- B- E A
Talking away I don't know what I'm to say I'll say it anyway today isn=
't
D C#- B- E F#- D
My day to find you shying away I'll be coming for your love OK
A C#-|G# F#- D A C#-/G# F#- D
Take on me.... Take me on......
(take on me) (take on me)
A C#-/G# F#- D A C#-/G# D E
I'll be gone in a day or two...
B- E A D C#- B- E A
So needless to say at odds and ends but I'm me stumbling away slowly
D C#- B- E F#- D
Learning that life is OK say after me it's no better to be safe than
A C#-/G# F#- D A C#-/G# F#- D
Sorry Take on me.... Take me on......
(take on me) (take on me)
A C#-/G# F#- D A C#-/G# D E
I'll be gone in a day or two...
C#- G C#- G B- E
N.C. | N.C. | N.C. | N.C.
B- | E | A | D C#- || B- | E | A | D C#- | B- | E | B- | E B-
Oh the things t=
Hat
E A D C#- B- E F#-
You say yeh is it life or just to play my worries away you're all the thi=
Ngs
D C#- B- E F#- D
I've got to remember you shying away I'll be coming for you anyway
A C#-/G# F#- D A C#-/G# F#- D
Take on me... Take me on......
(take on me) (take on me)
A C#-/G# F#- D A C#-/G# F#- D A C#-/G# F#- D
I'll be gone in a.. day......
(take on me...) (take me on...)
((Take on me)) ((Ta=
Ke
A C#-/G# F#- D A C#-/G# F#- D =20
I'll be gone... in a.. day...
On me..) (take me on..)
On me)) ((take on me) ((take on me))
A C#-/G# F#- D A C#-/G# F#- D A C#-/G# F#=
- D
(take on me....) (take me on.....) (take on me.=
...)
((take on me)) ((take on me)) ((=
Take
On me)) ...




Ваше мнение



Капча