BASS TABS
UNTIL WE DIE
GLOBAL THREAT

intro repeat 2x
G:---------------------------------------------
D:---------------------------------------------
A:--222222222222--4-5-0------------------------
E:-----------------------333333333333----------

verse repeat 4x
G:---------------------------------------------------
D:---------------------------------------------------
A:--222222222222--4-5-0------------------------------
E:-----------------------333333333333-----2--2--2-2--
end the verse on the second fret
chorus repeat 2x
G:-----------------------------------------------------------------------
D:----------4-4-4-4--5-5--4-4--2-2--4-4----------------------------------
A:--2-2-2-2------------------------------5-5-5-5-5-5-5-5-5-5-5-5-5-5-5-5-
E:-----------------------------------------------------------------------
verse repeat 4x
G:--------------------------------------------------
D:--------------------------------------------------
A--222222222222--4-5-0------------------------------
E:----------------------333333333333-----2--2--2-2--
chorus repeat 4x
G:-------------------------------------------------------------------------
D:-----------4-4-4-4- 5-5--4-4--2-2--4-4-----------------------------------
A:--2-2-2-2-------------------------------5-5-5-5-5-5-5-5-5-5-5-5-5-5-5-5--
E:-------------------------------------------------------------------------
bridge repeat 4x
G:--------------------------------------------------------------6---7--
D:-------------------------------------4-4-4-4-4-4-4-4--5-5-5-5--------
A:-5-5-5-5--4-4-4-4--2-2-2-2--0-0-0-0----------------------------------
E:---------------------------------------------------------------------
bridge repeat 4x
G:---------------------------------------------------
D:---------------------------------------------------
A:--222222222222--4-5-0------------------------------
E:-----------------------333333333333-----2--2--2-2--
outro repeat 4x
G:------------------------------------------------------------------------
D:-----------4-4-4-4--5-5--4-4--2-2--4-4----------------------------------
A:--2-2-2-2-------------------------------5-5-5-5-5-5-5-5-5-5-5-5-5-5-5-5-
E:------------------------------------------------------------------------
end on
G:--------
D:--------
A:-2~-2~--
E:--------




Ваше мнение



Капча