A GLOBAL THREAT-FUCKING RACIST MAGGOTS
Tabbed By Ben H (PunkAsPhuck)

. = palm mute

intro
E----------------------------
B----------------------------
G----------------------------
D-------------5-5------------
A-3--3-2-2--2-3-3--5-5--7-7--
E-1--1-0-0--0------3-3--5-5-- x3

E--------------------------------
B--------------------------------
G--------------------------------
D--------------------------------
A-5--5-5-5-5-5-5-5-5-5-5-5-5-5-5-
E-3--3-3-3-3-3-3-3-3-3-3-3-3-3-3-
. . . . . . . . . . . . . .

E----------------------------
B----------------------------
G----------------------------
D-------------5-5------------
A-3--3-2-2--2-3-3--5-5--7-7--
E-1--1-0-0--0------3-3--5-5-- x3

E----------------------------------------
B----------------------------------------
G----------------------------------------
D----*-*-*-*-*-*-*-*-*-*-*-*-*-*---------
A-5--5-5-5-5-5-5-5-5-5-5-5-5-5-5-7--5--5-
E-3--3-3-3-3-3-3-3-3-3-3-3-3-3-3-5--3--3-

verse
E-------------------------------------------------------------
B------------------------------------------------------8--5-6-
G-------------------------------------------------------------
D--------------------10--10--10-10-10-10----------------------
A-10--10--10-10-10-10-8---8---8--8--8--8-7--7--7-7-7-7--------
E--8---8---8--8--8--8--------------------5--5--5-5-5-5-------- x4

chorus
E---------------------------------
B---------------------------------
G---------------------------------
D---------------------------------
A-5-5-5-5-5-5-5-5-3-3-3-3-3-3-3-3-
E-3-3-3-3-3-3-3-3-1-1-1-1-1-1-1-1- x4




Ваше мнение



Капча