Date: Tue, 20 Jan 1998 14:56:15 EST
From: Pj15Chris
Subject: tab: "your name here" by "AFI"

:: AFI your name here
::
By far, this is my favorite afi song. i was
Looking for the guitar tab for it on the
Internet, but no one had it so i did it myself.
Please send comments to: [email protected]
Intro:
-----------------------------------------------
-----------------------------------------------
------10-----6-----8-----6--4------------------
-8----10-----6-----8-----6--4------------------
-8-----8-----4-----6-----4--3------------------
-6---------------------------------------------
--------------------------------------------898
---------------------------------------7777----
-6-6-6666-6-66-9864-9864-4-4-4444-4-44---------
-----------------------------------------------
-----------------------------------------------
-----------------------------------------------
-------------------------14-13-11-9-14-13-11-9-
-11-11-11-11-11-11-11-11-----------------------
-----------------------------------------------
-----------------------------------------------
-----------------------------------------------
-----------------------------------------------
-9-9-9999-9-99-11-11-11-11-9-8-----------------
-----------------------------------------------
-----------------------------------------------
-----------------------------------------------
-----------------------------------------------
-----------------------------------------------
Verse: x2
-----------------------------------------
-----------------------------------------
-----------------10-10-10-10-10-10-10-10-
-8-8-8-8-8-8-8-8-10-10-10-10-10-10-10-10-
-8-8-8-8-8-8-8-8--8--8--8--8--8--8--8--8-
-6-6-6-6-6-6-6-6-------------------------
-----------------------------------------
-----------------------------------------
-6-6-6-6-6-6-6-6-13-13-13-13-13-13-13-13-
-6-6-6-6-6-6-6-6-13-13-13-13-13-13-13-13-
-4-4-4-4-4-4-4-4-11-11-11-11-11-11-11-11-
-----------------------------------------
-----------------------------------------
-----------------------------------------
-----------------10-10-10-10-10-10-10-10-
-8-8-8-8-8-8-8-8-10-10-10-10-10-10-10-10-
-8-8-8-8-8-8-8-8--8--8--8--8--8--8--8--8-
-6-6-6-6-6-6-6-6-------------------------
-----------------------------------------
-----------------------------------------
-6-6-6-6-6-6-6-6-8-8-8-8-8-8-6-5---------
-6-6-6-6-6-6-6-6-8-8-8-8-8-8-6-5---------
-4-4-4-4-4-4-4-4-6-6-6-6-6-6-4-3---------
-----------------------------------------
Chorus: x2
-----------------------------------------
-----------------------------------------
-----------------6-6-6-6-6-6-6-6---------
-8-8-8-8-8-8-8-8-6-6-6-6-6-6-6-6---------
-8-8-8-8-8-8-8-8-4-4-4-4-4-4-4-4---------
-6-6-6-6-6-6-6-6-------------------------
-----------------------------------------
-----------------------------------------
-8-8-8-8-8-8-8-8-9-9-9-9-11-11-11-11-----
-6-6-6-6-6-6-6-6-7-7-7-7-11-11-11-11-----
-6-6-6-6-6-6-6-6-7-7-7-7--9--9--9--9-----
-----------------------------------------
Verse: x2
Chorus: x2
Bridge:
-----------------------------------------
-----------------------------------------
-----10----6---13--------10--6--8-8-8-6-5
-8---10----6---13------8-10--6--8-8-8-6-5
-8----8----4---11------8--8--4--6-6-6-4-3
-6---------------------6-----------------
Chorus:
Outro:
---------
---------




Ваше мнение



Капча