YOUR NAME HERE - AFI

By Vince 09/19/99
[email protected]

~= let ring
*= play 8 times

intro:
e|---------------------------------|
B|---------------------------------|
G|-------10~-----------------------|
D|---7~--10---10~--12~--10--10--9--|
A|---7----8---10---12---10--10--9--|
E|---5---------8---10----8---8--7--|

solo:
e|-----------------------------------------------------------|
B|-----------------------------------------------------------|
G|------------------10-9-7---10-9-7--------------------------|
D|--7-7-7-7-7-7-7-7--------7--------10-10-10-10-10-10-10-10--|
A|-----------------------------------------------------------|
E|-----------------------------------------------------------|

e|-----------------------------------------------13-12-10----|
B|-----------12-13-12-13-10-10-10-10-10-10-10-10----------13-|
G|--12-12-12-------------------------------------------------|
D|-----------------------------------------------------------|
A|-----------------------------------------------------------|
E|-----------------------------------------------------------|

e|--13-12-10-------------------------------------------------|
B|-----------13-13-13-13-13-13-13-13-15-15-15-13-13-12-10----|
G|-----------------------------------------------------------|
D|-----------------------------------------------------------|
A|-----------------------------------------------------------|
E|-----------------------------------------------------------|

Verse:
-Part 1:
e|-----------------------|
B|-----------------------|
G|------10*-------12*----|
D|--7*--10---10*--12-----|
A|--7----8---10---10-----|
E|--5---------8----------|

-Part 2:
e|------------------------------------------|
B|------------------------------------------|
G|------10*---------------------------------|
D|--7*--10---10*--12-12-12-12--10-10-10--9--|
A|--7----8---10---12-12-12-12--10-10-10--9--|
E|--5---------8---10-10-10-10---8--8--8--7--|

Part 1
Part 2

Chorus:
e|-----------------------------------|
B|-----------------------------------|
G|------10*--12*--13-13-13--14--16---|
D|--7*--10---12---13-13-13--14--16---| X2
A|--7----8---10---11-11-11--12--14---|
E|--5--------------------------------|

Verse Part 1
Part 2
Part 1
Part 2

Chorus

Bridge:
e|--------------------------------------------------------|
B|--------------------------------------------------------|
G|------10~-------12~------1010---------------------------|
D|--7~--10---10~--12---77--1010--1010---12-12-12-10-10-9--|
A|--7----8---10---10---77---8-8--1010---12-12-12-10-10-9--|
E|--5---------8--------55---------8-8---10-10-10--8--8-7--|

End:
e|----------------------------------------------------------------------|
B|----------------------------------------------------------------------|
G|------10*-------12*------10*---------------------------YOUR NAME HERE-|
D|--7*--10---10*--12---7*--10---10*--12-12-12-12-10-10-9---7---7----7~--|
A|--7----8---10---10---7----8---10---12-12-12-12-10-10-9---7---7----7---|
E|--5---------8--------5---------8---10-10-10-10--8--8-7---5---5----5---|




Ваше мнение



Капча