-----------------------------------------------------------------------------
Transference-AFI
-----------------------------------------------------------------------------
Tabbed By: Nate
Email: [email protected]

Tuning: Standard

Intro:
e|-5---1---8---6---5---1---8-----------|
B|-5---1---8---6---5---1---8-----------|
G|-7---3---10--8---7---3---10---8-8-8--|
D|-7---3---10--8---7---3---10---8-8-8--|
A|-5---1---8---6---5---1---8----6-6-6--|
E|-5---1---8---6---5---1---8----6-6-6--|
p.m

Verse
e|---------------------------------------------------------------|
B|---------------------------------------------------------------|
G|-7--------------------------5---7---------------------------5--|
D|-7--3--5---6--7---------3---5---7---3--5---6--7---------3---5--|
A|-5--3--5---6--7---------3---3---5---3--5---6--7---------3---3--|
E|-5--1--3---4--5---(5)---1---3---5---1--3---4--5---(5)---1---3--|

Chorus
e|-------------------------------------------------------|
B|-------------------------------------------------------|
G|-7-----10------7-----10--8--7-----10------7-----10--8--|
D|-7--8--10--10--7--8--10--8--7--8--10--10--7--8--10--8--|
A|-5--8--8---10--5--8--8---6--5--8--8---10--5--8--8---6--|
E|-5--6--8---8---5--6--8---6--5--6--8---8---5--6--8---6--|

Verse
e|---------------------------------------------------------------|
B|---------------------------------------------------------------|
G|-7--------------------------5---7---------------------------5--|
D|-7--3--5---6--7---------3---5---7---3--5---6--7---------3---5--|
A|-5--3--5---6--7---------3---3---5---3--5---6--7---------3---3--|
E|-5--1--3---4--5---(5)---1---3---5---1--3---4--5---(5)---1---3--|

Chorus
e|-------------------------------------------------------|
B|-------------------------------------------------------|
G|-7-----10------7-----10--8--7-----10------7-----10--8--|
D|-7--8--10--10--7--8--10--8--7--8--10--10--7--8--10--8--|
A|-5--8--8---10--5--8--8---6--5--8--8---10--5--8--8---6--|
E|-5--6--8---8---5--6--8---6--5--6--8---8---5--6--8---6--|

Bridge:
|-5------|-------------------------------|
|-5------|-------------------------------|
|-7------|-7-7-7---------1010-10--8-8-8--|
|-7------|-7-7-7--8-8-8--1010-10--8-8-8--|
|-5------|-5-5-5--8-8-8--8-8--8---6-6-6--|
|-5------|-5-5-5--6-6-6--8-8--8---6-6-6--|
let ring p.m p.m p.m p.m
(1x) (4x)

Verse
e|---------------------------------------------------------------|
B|---------------------------------------------------------------|
G|-7--------------------------5---7---------------------------5--|
D|-7--3--5---6--7---------3---5---7---3--5---6--7---------3---5--|
A|-5--3--5---6--7---------3---3---5---3--5---6--7---------3---3--|
E|-5--1--3---4--5---(5)---1---3---5---1--3---4--5---(5)---1---3--|

Chorus
e|-------------------------------------------------------|
B|-------------------------------------------------------|
G|-7-----10------7-----10--8--7-----10------7-----10--8--|
D|-7--8--10--10--7--8--10--8--7--8--10--10--7--8--10--8--|
A|-5--8--8---10--5--8--8---6--5--8--8---10--5--8--8---6--|
E|-5--6--8---8---5--6--8---6--5--6--8---8---5--6--8---6--|

End
e|-5-----3--3--3--3-5--|
B|-5-----3--3--3--3-5--|
G|-7-----5--5--5--5-7--|
D|-7-----5--5--5--5-7--|
A|-5-----3--3--3--3-5--|
E|-5-----3--3--3--3-5--|

This is my first tab so...I don't know.
Sounds real good to me.




Ваше мнение



Капча