tabbed by: edvice
artist:filth (covered by AFI)
intro/verse:
|-000---3-333---777--5-555------------| |-000---3-333---77777777---------|
|-222---5-555---999--7-777------------| |-222---5-555---99999999---------|
|-222---5-555---999--7-777---x3 then--| |-222---5-555---99999999---------|
|-------------------------------------| |--------------------------------|
|-------------------------------------| |--------------------------------|
|-------------------------------------| |--------------------------------|
chorus:
|-000---3-333---555--8-8-8-8----------------------|
|-222---5-555---777--10101010----5-7777-5-7777----|
|-222---5-555---777--10101010----7-9999-7-9999----|
|--------------------------------7-9999-7-9999----|
|-------------------------------------------------|
|-------------------------------------------------|
and thts the song.. i love it. have fun...




Ваше мнение



Капча