Song:This Secret Ninja
Band:AFI
Album:Very Proud of Ya
tabbed by:Nick Mighall

>means strum
r means let ring

Intro

G:-------------------|
D:--9r---------------|
A:----------9>-------|
E:-------------------|

Verse part 1

G:---------------------------------------------------------------
D:-------------------5-------------------------11-99889----------
A:------10-5>----------5>-----------10-5>---9>-------------------
E:-7>-----------7>--------3>---7>--------------------------------

Verse part 2

G:---------------------------------------------------------------
D:-------------------5-------------------------------------------
A:------10-5>----------5>-------------10-5>---9>-----------------
E:-7>-----------7>----------3>---7>------------------------------

Chorus

G:---------------------------------------------------------------
D:---------------------------------------------------------------
A:-----------------2--5--------------------------5---------------
E:-7-7-7-7-5-5-5-5-------3-3-3-3-7-7-7-7-5-5-5-5----5--3-3-3-3---

Bridge

G:-----------------------------------------------------------------
D:-----------------------------------------------------------------
A:-2-2-2-2-------------------------2-2-2-2-------------------------
E:---------3-3-3-3-5-5-5-5-0-0-0-0---------3-3-3-3-5-5-5-5-2-2-2-2-

End on E-3-

*Order*
Intro x1
Verse part 1 x1
Verse part 2 x1
Chorus x2
Verse part 1 x1
Verse part 2 x1
Chorus x2
Bridge x1
Verse part 1 x1
Verse part 2 x1
Chorus x2
End

Comments,Questions,Questions? [email protected]




Ваше мнение



Капча