(x=palmmute)

e------------------------------------------------------------------
B-6-6-6-5-5-5-6-6-8-8-8-5-5-5-5-5---6-6-6-5-5-5-6-6-8-8-8-5---6--5-
G-7-7-7-7-7-7-7-7-7-7-7-7-7-7-7-7---7-7-7-7-7-7-7-7-7-7-7-7---7--7-
D-0-0-0-0-0-0-0-0-0-0-0-0-0-0-0-0---0-0-0-0-0-0-0-0-0-0-0-0---0--0-
A------------------------------------------------------------------
E------------------------------------------------------------------
x x x x x x x x x x x x x x x

e----------------------------------------------------------------
B----6-6-6-5-5-5-6-6-8-8-8-5---6--5------------------------------
G----7-7-7-7-7-7-7-7-7-7-7-7---7--7---10---9 ---10---9 ---10--9 -
D----0-0-0-0-0-0-0-0-0-0-0-0---0--0---10---10---10---10---10--10-
A----------------------------------------------------------------
E----------------------------------------------------------------
x x x x x x

I love the way this sounds when I play it! It works for me, and it sounds very accurate.
I'm very certain of the palmmuting rhythm.

I know how to play the rest of the song, but it's mostly just chords, and that's kinda
boring to tab - if i can figure out the chords, anyone can.

AFI is the single best band ever.




Ваше мнение



Капча