Artist: AFI
Song: Boy Who Destroyed The World
Album: All Hallows E.P.

This is the way I think it goes(this is for Jade Puget!)

Intro/Chorus:

|--------------------------------------------|
|--------------------------------------------|
|----------------6-7-9--------5-77-----------|2x
|-9-99-9-7-9-9-9-6-7-9-5-55-5-5-77-7-77------|
|-9-99-9-7-9-9-9-4-5-7-5-55-5-3-55-7-77------|
|-7-77-7-5-7-7-7-------3-33-3------5-55------|

Play that then this:

|--------------------|
|-8-10-12-7-7-12b----|
|--------------------|
|--------------------|
|--------------------|
|--------------------|

Verse:

|--------------------------------|
|--------------------------------|
|-----------66-6-----------------|
|-99-9-77-5-66-6-5-2-7-----------|
|-99-9-77-5-44-4-5-2-7-----------|
|-77-7-55-3------3-0-5-----------|

That’s it!




Ваше мнение



Капча