Hi! I'm a guy of 16 years old and this is my first tab so excuse me if it's a bit unorganised or the rithm isn't correct, but I think it sounds quite good.

This is only the intro, but the whole song is more or less played as the intro.

Intro 1st part:

e--------------------------------------------------------|
B--------------------------------------------------------|
G----------------------------12-12-12-12-12-8-9-9-10-9---|
D---9-9-9-7-9-9-9---9-10-12--12-12-12-12-12-8-9-9-10-9---|
A---9-9-9-7-9-9-9---9-10-12--10-10-10-10-10-6-7-7-8--7---|
E---7-7-7-5-7-7-7---7-8--10------------------------------|

Intro 2nd part:
*=play 6-8 times

e-------------------------------------------------------|
B---------------------------------------------------*---|
G---------------------------12-12-14-14-11-11-14-14-16--|
D--9-9-9-7-9-9-9---9-10-12--12-12-14-14-11-11-14-14-16--|
A--9-9-9-7-9-9-9---9-10-12--10-10-12-12-9--9--12-12-14--|
E--7-7-7-5-7-7-7---7-8--10------------------------------|

Then pick slide. The verse and the chorus are very similar to the intro so try to play it changing some chords, ok?




Ваше мнение



Капча