tuning eb Bb Gb Db Ab Eb (just like Girls Not Grey)

key / = slide
h/p = hammer on/pull off
* = harmonic

Intro:

eb|---------------------------------------------|
Bb|---------------------------------------------|
Gb|---------------------------------------------|
Db|--2-2-222-2-2-2-2-2--(2)--2-2-222-2-2-2-2-2--|
Ab|--2-2-222-2-2-2-2-2--(2)--2-2-222-2-2-2-2-2--|
Eb|--0-0-000-0-0-0-0-0--(0)--0-0-000-0-0-0-0-0--|
[----------palm muted----------------------

eb|---------------------------------------------|
Bb|---------------------------------------------|
Gb|---------------------------------------------|
Db|--2-2-222-2-2-2-2-2--(2)--2-2-222-222222222--|
Ab|--2-2-222-2-2-2-2-2--(2)--2-2-222-222222222--|
Eb|--0-0-000-0-0-0-0-0--(0)--0-0-000-000000000--|
----------------------] [------Open------]

Verse:

eb|---------------------------------------------|
Bb|---------------------------------------------|
Gb|---------------------------------------------|
Db|--2-2-222-2-2-2-2-2--(2)--2-2-222-2-2-2-2-2--|
Ab|--2-2-222-2-2-2-2-2--(2)--2-2-222-2-2-2-2-2--|
Eb|--0-0-000-0-0-0-0-0--(0)--0-0-000-0-0-0-0-0--|
[----------palm muted----------------------

eb|---------------------------------------------|
Bb|---------------------------------------------|
Gb|---------------------------------------------|
Db|--2-2-222-2-2-2-2-2--(2)--2-2-222-222222222--|
Ab|--2-2-222-2-2-2-2-2--(2)--2-2-222-222222222--|
Eb|--0-0-000-0-0-0-0-0--(0)--0-0-000-000000000--|
----------------------] [------Open------]

eb|--------------------------------------------------------|
Bb|--------------------------------------------------------|
Gb|---------------------------0------0-99999999--/12-11-7--|
Db|--2-2--2-2--2-2--2-2--2222-2-2222-2-99999999---x--x--x--|
Ab|--2-2--2-2--2-2--2-2--2222---2222---77777777--/10-9--5--|
Eb|--0-0--0-0--0-0--0-0--0000---0000-----------------------|
pm pm
Bridge:

I think maybe there's a second guitar track under here playing
chords only.

eb|---------------------------|---------------------------|
Bb|------5-----5-----5-----5--|------5-----5-----5-----55-|
Gb|------4-----4-----4-----4--|------4-----4-----4-----44-|
Db|--2-2---------0-0----------|--2-2---------0-0---2-2----|
Ab|--------3-3---------2-2----|--------3-3----------------|
Eb|---------------------------|---------------------------|

eb|---------------------------|-----------------------------|
Bb|------5-----5-----5-----5--|------5-----5----------------|
Gb|------4-----4-----4-----4--|------4-----4----------------|
Db|--2-2---------0-0----------|--2-2-----------/5/4---/5/4--|
Ab|--------3-3---------2-2----|--------3-3---5------5-------|
Eb|---------------------------|-----------------------------|

eb|--------------------|
Bb|--------------------|
Gb|--------------------|
Db|--2--222222--4h5p---|
Ab|--2--222222------5--|
Eb|--0--000000---------|
[--pm--]

Verse:

eb|-----------------------------------|
Bb|-----------------------------------|
Gb|---------------------------4h5p4---|
Db|--2-2-222-2-22-22--2-2-222------5--|
Ab|--2-2-222-2-22-22--2-2-222---------|
Eb|--0-0-000-0-00-00--0-0-000---------|
[----------pm------------]

eb|-----------------------------------|
Bb|-----------------------------------|
Gb|-----------------------------------|
Db|--5-5-555-5-55-55--5-5-555-4h5p4---|
Ab|--5-5-555-5-55-55--5-5-555------5--|
Eb|--3-3-333-3-33-33--3-3-333---------|
[----------pm------------]

eb|-----------------------------------|
Bb|-----------------------------------|
Gb|---------------------------4h5p4---|
Db|--2-2-222-2-22-22--2-2-222------5--|
Ab|--2-2-222-2-22-22--2-2-222---------|
Eb|--0-0-000-0-00-00--0-0-000---------|
[----------pm------------]

eb|--------------------------5------5--0--|
Bb|-----------------------------7------0--|
Gb|-------------------77777-------7----0--|
Db|--5-5-555-5-55-55--77777------------2--|
Ab|--5-5-555-5-55-55--55555------------2--|
Eb|--3-3-333-3-33-33-------------------0--|
[-------pm------]

Chorus:

eb|--0-0-0-0-0-0--3-3-3-3-3-3--5-5-5-5-5-5--3-3-3-5-5-5--|
Bb|--0-0-0-0-0-0--5-5-5-5-5-5--7-7-7-7-7-7--5-5-5-7-7-7--|
Gb|--0-0-0-0-0-0--5-5-5-5-5-5--7-7-7-7-7-7--5-5-5-7-7-7--|
Db|--2-2-2-2-2-2--5-5-5-5-5-5--7-7-7-7-7-7--5-5-5-7-7-7--|
Ab|--2-2-2-2-2-2--3-3-3-3-3-3--5-5-5-5-5-5--3-3-3-5-5-5--|
Eb|--0-0-0-0-0-0-----------------------------------------|

eb|--0-0-0-0-0-0--3-3-3-3-3-3--5-5-5-5-5-5--------------0--|
Bb|--0-0-0-0-0-0--5-5-5-5-5-5--7-7-7-7-7-7----88----88--0--|
Gb|--0-0-0-0-0-0--5-5-5-5-5-5--7-7-7-7-7-7----77----77--0--|
Db|--2-2-2-2-2-2--5-5-5-5-5-5--7-7-7-7-7-7--5-----4-----2--|
Ab|--2-2-2-2-2-2--3-3-3-3-3-3--5-5-5-5-5-5--------------2--|
Eb|--0-0-0-0-0-0----------------------------------------0--|

eb|--00000000000000000--0--|
Bb|--55555555555555555--0--|
Gb|---------------------0--|
Db|---------------------2--|
Ab|---------------------2--|
Eb|---------------------0--|
[--pm-------open--]

eb|----------------------------------------------|
Bb|----------------------------------------------|
Gb|---------------------------0------0-99999999--|
Db|--2-2--2-2--2-2--2-2--2222-2-2222-2-99999999--|
Ab|--2-2--2-2--2-2--2-2--2222---2222---77777777--|
Eb|--0-0--0-0--0-0--0-0--0000---0000-------------|
pm pm

Then go back to the bridge and repeat the rest of it from there.
The second chorus has a bit of lead under it but I can't figure
it out.

Outro:

eb|--0----12*--------------| These are the right harmonics
Bb|--0-----------7*----7*--| but the order moves around a
Gb|--0--------5*----7*-----| bit so listen to it to get
Db|--2---------------------| it right!
Ab|--2---------------------|
Eb|--0---------------------|

eb|------------------|
Bb|------------------|
Gb|--9--5-------7-7--| Repeat lots of times
Db|--9--5--5-5--7-7--|
Ab|--7--3--5-5--5-5--|
Eb|--0-----3-3-------|

The lead bit over the top of this is something like this:

eb|----------777-----------|
Bb|------88-----101010-77--|
Gb|--9999--99--------------|
Db|------------------------|
Ab|------------------------|
Eb|------------------------|
[--pm----------open--]

Then you play the second bar of the outro a few more times,
changing the intensity and timing a little. It all ends on
a low Ebm:

eb|--0--|
Bb|--0--|
Gb|--0--|
Db|--2--|
Ab|--2--|
Eb|--0--|




Ваше мнение



Капча