song: soap box derby
band: afi
tabbed by: norefundsbass
tuning: EADG
ok, first thing to know is to wait a few measures before playing.
intro:
im working on this right now
verse part1:
G----------------] ------------------------------------------------------|
D----------------] ------------------------------------------------------|
A----------------] x4----7x16----------------------------------------------|
E-5x16--1x8--3x8-] ------------------------------------------------------|
verse part2:
G--------------------------------------------------------------------------|
D----------------------------2-2-2-----------------------------------------|
A--------------------3-3-3-3-------2-2-2-2-------3-3-3-3-2-----------------|
E-5----3x8-----5-5-5-----------------------5-5-5-----------3x8-------------|
chorus part1:
G-----------------]
D-----------------]
A-----7x8-5x16----]x2
E-5x8-------------]
chorus part2
G--------------------------------------------]
D--------------------------------------------]
A----7-7-5-3-3--------------7-7-5-3----------]x2
E-5-5----------3-3-3--5--5-5--------5-5-5-5-5]
verse part1:
G----------------] -----------------------------------------------------|
D----------------] -----------------------------------------------------|
A----------------] x4----7x16-------------12/3-(strum the slide)----------|
E-5x16--1x8--3x8-] -----------------------------------------------------|
G-------------------------------------------------------------]
D---------------2-2-2-----------------------------------------]
A-------3-3-3-3-------2-2-2-2-------3-3-3-3-2-----------------]x2
E-5-5-5-----------------------5-5-5-----------3x8-------------]
chorus part1:
G-----------------]
D-----------------]
A-----7x8-5x16----]x4
E-5x8-------------]
chorus part2
G--------------------------------------------]
D--------------------------------------------]
A----7-7-5-3-3--------------7-7-5-3----------]x4
E-5-5----------3-3-3--5--5-5--------5-5-5-5-5]




Ваше мнение



Капча