AFi - Sacrifice Theory
By:Andrew ([email protected])

Intro
e|---------------------------------------------------------------------------|
B|---------------------------------------------------------------------------|
G|---------------------------------------------------------------------------|
D|-9--9--------9-------------------------------------------------------------|
A|-9-----9-----9-------------------------------------------------------------|
E|-7--------7--7-------------------------------------------------------------|
Verse
e|---------------------------------------------------------------------------|
B|---------------------------------------------------------------------------|
G|--------------------------------7------------------------------------------|
D|--9--5--7--9--5--7--9--5--7--5--7--7---------------------------------------|
A|--9--5--7--9--5--7--9--5--7--5--5--7---------------------------------------|
E|--7--3--5--7--3--5--7--3--5--3-----5---------------------------------------|
Chorus
e|---------------------------------------------------------------------------|
B|---------------------------------------------------------------------------|
G|-7----------------7--------------------------------------------------------|
D|-7--7---9----5----7---7----------------------------------------------------|
A|-5--7---9----5----5---7----------------------------------------------------|
E|----5---7----3--------5----------------------------------------------------|
Bridge
e|---------------------------------------------------------------------------|
B|---------------------------------------------------------------------------|
G|--------7---------------7-----------------7---------------7----------------|
D|-9--5---7---7---9---5---7----7----9---5---7----7---9--5---7--7-------------|
A|-9--5---5---7---9---5---5----7----9---5---5----7---9--5---5--7-------------|
E|-7--3-------5---7---3--------5----7---3--------5---7--3------5-------------|
Pm...........................

e|---------------------------------------------------------------------------|
B|---------------------------------------------------------------------------|
G|---------------------------------------------------------------------------|
D|--5-4-2--5--9--------------------------------------------------------------|
A|--5-4-2--5--7--------------------------------------------------------------|
E|--3-2-0--3--5--------------------------------------------------------------|




Ваше мнение



Капча