AFi - Reivers Music
By:Andrew Mcshan([email protected])
Verse
e|---------------------------------------------------------------------------|
B|---------------------------------------------------------------------------|
G|-8-8-8------------8-8-8--------------8-8-8---------------8-8-8-8-----8~~---|
D|-8-8-8---11---10--8-8-8----11----10--8-8-8----11---10----8-8-8-8-----8~~---|
A|-6-6-6--9----8----6-6-6--9-----8-----6-6-6--9----8-------6-6-6-6-----6~~---|
E|---------------------------------------------------------------------------|
Pm........
e|---------------------------------------------------------------------------|
B|---------------------------------------------------------------------------|
G|-8-8-8-----------8-8-8----------8-8-8-----------6--8---10-11---------11-10-|
D|-8-8-8---11--10--8-8-8--11--10--8-8-8--11--10---x--x---x--x-----8~~--11-10-|
A|-6-6-6--9---8----6-6-6-9---8----6-6-6-9---8-----4--6---8--9-----8~~--9--8--|
E|----------------------------------------------------------------6~~--------|
Chorus
e|---------------------------------------------------------------------------|
B|---------------------------------------------------------------------------|
G|-8-8-8---11--10-------------11---------------------------------------------|
D|-8-8-8---11--10-----9-9-9---11----11---------------------------------------|
A|-6-6-6---9---8------9-9-9---9-----11---------------------------------------|
E|--------------------7-7-7---------9----------------------------------------|
Bridge
e|---------------------------------------------------------------------------|
B|---------------------------------------------------------------------------|
G|-11-11-11--8-8-8-----------------------------------------------------------|
D|-11-11-11--8-8-8-----------------------------------------------------------|
A|-9--9--9---6-6-6-----------------------------------------------------------|
E|---------------------------------------------------------------------------|




Ваше мнение



Капча